Jennings Waylon - Defying Gravity Chords & Tabs

 

Defying Gravity Chords & Tabs

Jennings Waylon Chords & Tabs

Version: 1 Type: Chords 0 ratings
1 star 2 stars 3 stars 4 stars 5 stars
comments

Defying Gravity Chords

   
#-------------------------------PLEASE NOTE-------------------------------------#
# This file is the author's own work and represents their interpretation of the #
# song. You may only use this file for private study, scholarship, or research. #
#-------------------------------------------------------------------------------#
  Song: Defying Gravity
Artist: Waylon Jennings
 Album: The Executioner's Song Soundtrack

INTRO

             G
E|-------------3------3----3------3------------------------
B|-------------0------0----0------0------------------------
G|-------------0------0----0------0------------------------
D|-------------0----0------0----0--------------------------
A|-3--2--0-----2-----------2-------------------------------
E|-----------3-----------3---------------------------------

            D
E|-------------2-----2----2--------------------------------
B|-------------3-----3----3--------------------------------
G|-------------2-----2----2--------------------------------
D|-------------0---0------0--------------------------------
A|-3--2--3---3----------0----------------------------------
E|---------------------------------------------------------

D                    G
I live on a big blue ball
G                         D
I never did dream I would fall
D                       G
But even the day that I do
G                               D
I'll jump off and smile back at you


SOLO

E|--7s---12--10--8---3---1s3s1-0p--------------------------
B|---------------------------------------------------------
G|---------------------------------------------------------
D|---------------------------------------------------------
A|---------------------------------------------------------
E|---------------------------------------------------------
[ Tab from: http://www.guitartabs.cc/tabs/j/jennings_waylon/defying_gravity_crd.html ]
E|--7s---10--7--3--1---------------------------------------
B|---------------------3s5s3s1-----------------------------
G|---------------------------------------------------------
D|---------------------------------------------------------
A|---------------------------------------------------------
E|---------------------------------------------------------

D                           G
We don't even know where we are
G                              D
They say that we're circling a star
D                                      G
But I'll take their word, well I don't know
G                         D
I'm dizzy so maybe that's so

SOLO

G                     D
I'm riding a big blue ball
D                           G
And never did dream I would fall
G                           D
But even the highs must lay low
D                              G
When I do fall I'll be glad to go

SOLO 2x FOR OUTRO


Explanation

s=> slide
p=> pull off

For the intro just play as shown, continue
to play the chords at that progression. 
There are two guitars, one that plays the 
solo and the other that plays the rhythm
(the chords). If you are lucky two have two
guitarists let one play the solo while the
other just plays the chords. Listen to the 
song for timing. 

This is a great song by Waylon Jennings
and came out on the movie the 
" The Executioner's Song ", with Tommy Lee
Jones. I would have to say it's one of the 
best songs I've heard from Waylon Jennings 
and was hard to find, found it on LimeWire. 
I could not find the chords or tabs to this
song anywhere, so I had to get to it and do
everything myself. I hope it's easy to
understand. If you have any suggestions,
comments, or ust want to insult me me e-mail
is ihuizzyi@yahoo.com

   Adam
     (a.k.a The Weasel)
Comments