Jennifer Rostock - Du Willst Mir An Die Wasche Chords & Tabs

 

Du Willst Mir An Die Wasche Chords & Tabs

Jennifer Rostock Chords & Tabs

Version: 1 Type: Bass Tab

Du Willst Mir An Die Wasche Bass Tab

**********************************
Du willst mir an die Waesche
**********************************

tabbed by -zero83-
PLEASE RATE AND COMMENT! =)

Tuning: EADG

Das hier sind (abgesehen von der Strophe) nur die Grundtoene.
Ich hab nich jedes Detail aufgeschriebn, damit Ihr auch noch was zu tun habt!^^


0:04
 ----------------|
 ----------------|
 ------------13\-|
 ----------------|

0:05
REFRAIN 2x
 ----------------|
 ----------------|
 -1-------3---5--|
 -----1----------|

0:13
STROPHE
 ----------------------------------------------------------------|
 ---------------------12-10p12--------12-10p12--------10p12------|
 -5-\-12-10p12---12--------------13--------------10---------10\--|
 ----------------------------------------------------------------|
[ Tab from: http://www.guitartabs.cc/tabs/j/jennifer_rostock/du_willst_mir_an_die_wasche_btab.html ]
 ----------------------------------------------------------------|
 ---------------------12-10p12--------12-10p12-------------------|
 -5-\-12-10p12---12--------------13--------------10--------------|
 -----------------------------------------------------8-10--10\--|

0:31
REFRAIN 2x

0:40
STROPHE

0:57
REFRAIN 8x

1:33
STROPHE

1:51
REFRAIN 4x

2:09
BREAK
 -----------------|-----------------|
 -----------------|-----------------|
 -----------------|------12-10------|
 -----------------|-----------13-10-|

 --------------2x-|-----------------|
 -----------------|-----------------|
 ---------1---3---|-1---/---15\-----|
 -1---3-----------|-----------------|

 -----------------|----------------------------------------------------|
 -----------------|----------------------------------------------------|
 -----------------|--------12-12-12 <-2:42 "Gedudel" - seid kreativ!---|
 -----------------|----------------------------------------------------|

2:44
REFRAIN -> fade out