Jem - 24 Chords & Tabs

 

24 Chords & Tabs

Jem Chords & Tabs

Version: 2 Type: Tab 0 ratings
1 star 2 stars 3 stars 4 stars 5 stars
comments

24 Tab

-------------------------------------------------------------------------------
			     24-Jem
-------------------------------------------------------------------------------
Tabbed by: Mike Straw
Email: mickeystraw@yahoo.com

Tuning: standard
Intro/verse
e|------------------------------------------------------------------------|
B|------------------------------------------------------------------------|
G|------------------------------------------------------------------------|
D|----2-4-2-5555----2-4-2-------------2--9-7-10101010----2-9-7----2--9-13-|
A|--2-------------2-------22-55--- 0 -----------------0---------2---------|
E|------------------------------------------------------------------------|
[ Tab from: http://www.guitartabs.cc/tabs/j/jem/24_tab_ver_2.html ]
Pre-chorus
e|---------------------------------------------------------|
B|---------------------------------------------------------|
G|-555555555-----------55555555----------------------------|
D|-333333333--77777777-33333333-77777777-------------------|
A|-333333333--55555555-33333333-55555555-------------------|
E|------------55555555----------55555555-------------------|

chorus
e|---------------------------------------------------------------|
B|---------------------------------------------------------------|
G|-44-44-44-44---------------------------------------------------|
D|-44-44-44-44--77-77-99-99--------------------------------------|
A|-22-22-22-22--55-55-77-77--------------------------------------|
E|--------------55-55-77-77--------------------------------------|



This is my first tab, and I hope you all like it
Comments