Jelly Roll Morton - Dead Man Blues Chords & Tabs

 

Dead Man Blues Chords & Tabs

Jelly Roll Morton Chords & Tabs

Version: 1 Type: Tab 0 ratings
1 star 2 stars 3 stars 4 stars 5 stars
comments

Dead Man Blues Tab

#----------------------------------PLEASE NOTE---------------------------------#
#This file is the author's own work and represents their interpretation of the #
#song. You may only use this file for private study, scholarship, or research. #
#------------------------------------------------------------------------------##
 <9304222142.AA18858@madrone.eecs.ucdavis.edu>
To: jamesb@animal-farm.nevada.edu
Subject: Tab: Jelly Roll Morton, "Dead Man Blues"


>From the acoustic guitar mailing list

DEAD MAN BLUES
Jelly Roll Morton, arr. Lasse Johannson
modified and posted by Richard Darsie (darsie@eecs.ucdavis.edu)
Guitar tuning:  drop G, DGDGBE
4 main beats per measure, indicated by verticals
$ = next three notes are a triplet


    |   |   |   |        |   |   |   |        |   |   |     |
    |   |   |   |        |   |   |   |        |   |   |     |
E---0-------7------7--|--7-------8------7--|--7-------7--5--3---|
B-------0-------0-----|------0-------5-----|------0-------------|
G-------0-------0-----|------0-------5-----|------0-------------|
D---2-------5---------|--5-------7---------|--5-------5--4--2---|
G---------------------|--------------------|--------------------|
D---------------------|--------------------|--------------------|

    |   |   |   |     |   |   |   |        |   |   |   |
    |   |   |   |     |   |   |   |        |   |   |   |
E---2--------------|--0-------3------0--|----------3------2---|
B-------0-------0--|------0-------0-----|--0-----------0------|
G-------2-------2--|------0-------0-----|------0-------0------|
D---1--------------|--2-----------------|------2--------------|
G-----------4------|----------4---------|----------4----------|
D------------------|--------------------|--2------------------|

                 End
                 Here

    |  |  |  |    |  |  |     |      |   |   |   |     |  |  |     |
    |  |  |  |    |  |  |     |      |   |   |   |     |  |  |     |
E---0-----0----|--0--------------||------3---1------|-----3--1--3--1--|
B---0-----1----|--0-----3--2--1--||--0---0---0------|-----0--0-----0--|
G---0-----2----|--0-----5-----2--||--0--------------|-----------------|
D--------------|--------0--------||------2---0------|-----2--0--------|
G--------------|--------------2--||--0-----------4--|--0--------------|
D---2-----2----|--2--------------||-----------------|--------------3--|


    |   |  |  |        |     |     |  |     |     |     |     |
    |   |  |  |        |     |     |  |     |     |     |     |
E-------3--1--------|--1--------3--------|-----0--------0-----------|
B-------0--0-----3--|-----3-----0--------|-----------4--------------|
G-------------------|--------------------|--------0--------0--------|
D-------2--0--------|--------0-----------|--------------------0--1--|
G---0---------------|--0-----------2--4--|--5-----------0-----------|
D-------------3-----|--------------------|--------------------------|


    |     |     |     |     |   |   |   |     |   |   |      |
    |     |     |     |     |   |   |   |     |   |   |      |
E------------------------|----------5------|--4-------------$0--------|
B------------------------|--3-----------4--|--3----------4------4--3--|
G------0--2--0--5--------|------0-------2--|--------------------------|
D---2-----0-----8--7--5--|------0---4------|------2----------2--------|
G---0-----------5--------|--2--------------|----------4---------------|
D------------------------|-----------------|--2-----------------------|


    |    |     |     |        |  |  |     |    |     |     |     |
    |    |     |     |        |  |  |     |    |     |     |     |
E-----7--5--7--5-----------|-----------0-----|-3-----------------------|
B--------5--------8-----5--|--8--5--3--------|-3--2--1--0--3--2--1--0--|
G---6-------------6--------|--6--6--5--------|-4--3--2--0--4--3--2--0--|
D--------5-----------5-----|-----5--------4--|-------------------------|
G--------------------------|-----------------|-0-----------------------|
D---7----------7-----------|--7-----0--------|-------------------------|


    |     |     |  |     |     |     |   |      |     |     |   |
    |     |     |  |     |     |     |   |      |     |     |   |
E---------------------|-----------------------|-----------------------|
B---3--2--1--0-----3--|--3--2--1--0--3------0-|-3--2--1--0--3------0--|
G---4--3--2--0-----5--|--4--3--2--0--4------0-|-4--3--2--0--4------0--|
D------------------4--|--------0---------0----|-------0---------0-----|
G---------------------|--0--------------------|-0---------------------|
D------------------0--|--------------0--------|-------------0---------|

[ Tab from: http://www.guitartabs.cc/tabs/j/jelly_roll_morton/dead_man_blues_tab.html ]
    |     |     |     |        |     |     |    |
    |     |     |     |        |     |     |    |
E---------------------------|-------------------------|
B---3--2--1--0--3--2--1--0--|--3--2--1--0-------------|
G---4--3--2--0--4--3--2--0--|--4--3--2--0----0--2--0--|
D---------0-----------0-----|--------0----------3-----|
G---0-----------------------|--0-----------2----4-----|
D---------------0-----------|-------------------------|


    |     |     |     |       |     |     |     |
    |     |     |     |       |     |     |     |
E--------------------------|------------------------|
B------------1-------------|------------------------|
G------0--2--------0-------|-----0--2--0--5---------|
D---------2-----------0--1-|--2-----0-----8--7--5---|
G---5-----------0----------|--0-----------5---------|
D--------------------------|------------------------|


    |     |     |     |        |     |     |      |
    |     |     |     |        |     |     |      |
E---------7-----7--6--5--4--|-----7--4--0--------$0---------|
B------0-----0--4-----4--5--|-----------------4------4--3---|
G---------7-----------------|-------------------------------|
D---------------------4-----|--------2------------2---------|
G---0-----------------------|--4----------------------------|
D---------------4-----------|--------------2----------------|


    |    |     |     |        |  |  |     |    |     |     |     |
    |    |     |     |        |  |  |     |    |     |     |     |
E-----7--5--7--5-----------|-----------0-----|-3-----------------------|
B--------5--------8-----5--|--8--5--3--------|-3--2--1--0--3--2--1--0--|
G---6-------------6--------|--6--6--5--------|-4--3--2--0--4--3--2--0--|
D--------5-----------5-----|-----5--------4--|-------------------------|
G--------------------------|-----------------|-0-----------------------|
D---7----------7-----------|--7-----0--------|-------------------------|


    |     |     |  |      |     |     |     |        |     |     |  |
    |     |     |  |      |     |     |     |        |     |     |  |
E---------------------||-----6--7-----5--4--3--0--|--6--7--0--3--------|
B---3--2--1--0-----3--||-----------3--------------|--------------------|
G---4--3--2--0-----5--||*----6--7-----------------|--6--7--------------|
D------------------4--||*-------0-----------0-----|--------0-----------|
G---------------------||--0-----------------------|--0-----------4--2--|
D------------------0--||--------------0-----------|--------------------|


     |     |     |     |        |     |       |  |
     |     |     |     |        |     |       |  |
E-------6--7-----5--4--3--0--|--6--7--0--------------|
B-------------3--------------|-----------8-----------|
G-------6--7-----------------|--6--7-----10----------|
D----------0-----------0-----|--------0--------------|
G----0-----------------------|--0--------------------|
D----------------0-----------|----------------7--9---|


     |     |     |     |        |     |     |     |
     |     |     |     |        |     |     |     |
E-------6--7--0--5--4--3--0--|--6--7--0--3---------------|
B----------------------------|---------------------------|
G----------0-----------0-----|--------0------------------|
D----------------------------|---------------------------|
G----5-----------0-----------|--5-----------5--4--2--1---|
D----------------------------|---------------------------|


     |     |     |     |        |     |      |      |
     |     |     |     |        |     |      |      |
E-------6--7-----5--4--3--2--|--1--0-----7---------$0---------|
B-------------3--------------|--------------------------------|
G-------6--7-----------------|--1--------7------8------8--7---|
D----------0-----------4-----|--------2-------------0---------|
G----0-----------------------|--2-----------------------------|
D----------------4-----------|---------------6----------------|

    |    |     |     |        |  |  |     |    |     |     |     |
    |    |     |     |        |  |  |     |    |     |     |     |
E-----7--5--7--5-----------|-----------0-----|-3-----------------------|
B--------5--------8-----5--|--8--5--3--------|-3--2--1--0--3--2--1--0--|
G---6-------------6--------|--6--6--5--------|-4--3--2--0--4--3--2--0--|
D--------5-----------5-----|-----5--------4--|-------------------------|
G--------------------------|-----------------|-0-----------------------|
D---7----------7-----------|--7-----0--------|-------------------------|


  __________________    ____________________
  | 1.                  | 2.
  |                     |
    |     |     |  |       |     |     |  |
    |     |     |  |       |     |     |  |
E------------------2---||-----------------7---|-|
B---3--2--1--0-----1---||--3--2--1--0-----4---|-|    Repeat from
G---4--3--2--0-----2--*||--4--3--2--0-----4---|-|    beginning to
D------------------0--*||-----------------4---|-|    "End Here"
G----------------------||---------------------|-|
D----------------------||---------------------|-|
Comments