Jeffries Fan Club - I Want More Chords & Tabs

 

I Want More Chords & Tabs

Jeffries Fan Club Chords & Tabs

Version: 2 Type: Bass Tab 0 ratings
1 star 2 stars 3 stars 4 stars 5 stars
comments

I Want More Bass Tab

Song: I Want More
Band: Jeffries Fan Club
Album: Hey Brother Can You Spare Me Some Ska?
tabbed by: Andrew


Intro x4 
G:-----------------------------------
D:-----------------------------------
A:-5(x8)----------------5-5----------
E:--------5(x8)--3(x8)------5-5-5-5--

Verse
G:---7---------5-------------------5------
D:-----7-5-------5-3-----5-----------5-3--
A:-7---------5-------------5-3---5--------
E:---------------------5------------------
[ Tab from: http://www.guitartabs.cc/tabs/j/jeffries_fan_club/i_want_more_btab_ver_2.html ]
Bridge (play the first part 4 times second part twice) 
       (then repeat first part twice and go into the verse)
G:---------7-----------------------------------*-------------
D:-----5/7------------7----------5----------7--*-------------
A:-5-5------------5-7--------3/5--------5-7----*-5-----------
E:------------5-5--------3-3--------5-5--------*----5--3--5--

Chorus
G:-------7-------------------------
D:---5-7--------7-------5------7---
A:-5--------5-7-----3-5-----5-7----
E:--------5-------3-------5--------

 For the last part just repeat the intro 4 times

You're gonna have to figure out when each part goes in, cause i'm to 
lazy and i have to go to work.
Comments