Jefferson Starship - With Your Love Chords & Tabs

 

With Your Love Chords & Tabs

Jefferson Starship Chords & Tabs

Version: 1 Type: Tab 0 ratings
1 star 2 stars 3 stars 4 stars 5 stars
comments

With Your Love Tab

   
##################################################################################
# This file is the author's own work and represents their interpretation of the  #
# song. You may only use this file for private study, scholarship, or research.  #
##################################################################################

With Your Love
Jefferson Starship
From the Album-"Spitfire"
1976
Written by Marty Balin/Joey Covington/Victor Smith
Tabbed by Ray Scheidler 


Intro:
                                 Verse Starts
                                     D
E------------------0-----5-----------------------
B------------2-----------------------------------
G------0-----------------------2---------------2-
D--2---------------------------------0----4------
A------------------------------------------------
E------------------------------------------------


 D                 Dmaj7                Fmaj7
Don't know what's happened to me since I met you


Fill 1:
[ Tab from: http://www.guitartabs.cc/tabs/j/jefferson_starship/with_your_love_tab.html ]
              G         F         G       Dmaj7
E-------------------------------------------2----
B--------2----3---------1---------3---------2----
G-----2----------4---------2----------4-----2----
D--2----------------5---------3-------------4----
A------------------------------------------------
E------------------------------------------------


Dmaj7                                Fmaj7
Feels like I'm falling in love since I met you


                                   G
E------------------------------------------------
B------5---------------------------3------3------
G------------5------------5--------4------4------
D------------------7---------------5------5------
A------------------------------------------------
E------------------------------------------------


Solo: Dmaj7 Fmaj7 G F G Dmaj7 F G G
      A Gmaj7 D C A Gmaj7 D C A Gmaj7 
      D C D Dsus D
Comments