Jefferson Starship - Stranger Chords & Tabs

 

Stranger Chords & Tabs

Jefferson Starship Chords & Tabs

Version: 1 Type: Tab 0 ratings
1 star 2 stars 3 stars 4 stars 5 stars
comments

Stranger Tab

   
##################################################################################
# This file is the author's own work and represents their interpretation of the  #
# song. You may only use this file for private study, scholarship, or research.  #
##################################################################################

Stranger
Jefferson Starship
From the Album-"Modern Times"
1981
Written by Pete/Jeanette Sears
Tabbed by Ray Scheidler



Chords:
[ Tab from: http://www.guitartabs.cc/tabs/j/jefferson_starship/stranger_tab.html ]
   Bm   A6/B Gmaj7/B  A/B   G/B   G    A    E
E---2-----2-----2------------3----3-------------
B---3-----2-----3------2-----3---------2--------
G---4-----2------------2---------------2----1---
D---4-----2----------------------------2----2---
A---------2-----2------2-----2----2---------2---
E---------------------------------3-------------


Bass line throughout:

G------------------------------------------------
D------------------------------------------------
A--2--5--5---2--2----------2---5--5---2--2-------
E-------------------2--5--------------------2--5-


Intro/Fill:

   Bm          A6/B Gmaj7             Bm
E--(2)----(5)----0----2--------------------------
B--(3)----(3)----3----3-----------3--------------
G--(4)----(4)----2---------2--4--------4---------
D--(4)----(4)----4---------------------4---------
A----------------7----2----------------5---------
E------------------------------------------------
Comments