Jefferson Blind Lemon - Hotdogs Chords & Tabs

 

Hotdogs Chords & Tabs

Jefferson Blind Lemon Chords & Tabs

Version: 1 Type: Tab 0 ratings
1 star 2 stars 3 stars 4 stars 5 stars
comments

Hotdogs Tab

Artist : Blind Lemon Jefferson
Song   : Hotdogs
________________________________________________
Added by Mikhailo (tabteam@ultimate-guitar.com)
________________________________________________
[ Tab from: http://www.guitartabs.cc/tabs/j/jefferson_blind_lemon/hotdogs_tab.html ]
                                                       
E||-------3-----3--3--------|--3-------3--------------|
B||----------1-----------1--|-------1-----------------|
G||-------------------------|-------------------------|
D||-------2-----------2-----|-------2-----------0--1--|
A||--3----------3-----------|--3----------3--3--------|
E||-------------------------|-------------------------|
                                                                           
-------3-----3--3--------|--3-----0--3-------------|----------------------|
----------1-----------1--|-----1-------------------|--1---------3---------|
-------------------------|----------------------2--|----------------------|
--2----------2-----------|--2----------------------|-------3---------3----|
-------3-----------3-----|--------3-----2----0-----|----------------------|
-------------------------|-------------------------|--1---------1---------|
                                                                  
--0-----0--3-------------|--3-----1-----0---------|--------------|
-----1-----1----------5--|-------------------3----|--1-----------|
-------------------------|-----2-----3------------|--------0-----|
--------2-----2----0-----|-------------------3----|--2-----0--1--|
--3----------------------|------------------------|-----3--------|
-------------------------|------------------------|--------------|
                                                                         
----------0------------|-----0------------------|----------0------------|
----------1------------|-----1------------------|----------1------------|
-------------0----2----|----------2-------0-----|-------------0----2----|
--2--------------------|------------------0--1--|--2--------------------|
-------3---------------|--3------------3--------|-------3---------------|
-----------------------|------------------------|-----------------------|
                                                         
-------0-------------------------|----------------------|
-------1-------------------------|--1---------3---------|
------------2-----------------2--|----------------------|
-----------------3----0----------|-------3---------3----|
--3------------------------------|----------------------|
---------------------------0-----|--1---------1---------|
                                                                  
--0-----0--0-------------|--3-----1-----0---------|--------------|
-----1-----1----------5--|-------------------3----|--1-----------|
-------------------------|-----2-----0------------|--------------|
--------2----------------|-------------------3----|--2-----2--1--|
--3-----------2----0-----|------------------------|--------------|
-------------------------|------------------------|-----3--------|
                                                                        
-----------0-----------|-----0------------------|----------0-----------|
-----------1-----------|-----1------------------|----------1-----------|
------------------2----|--0-------2-------------|----------0------2----|
--0-----0--------------|------------------0--1--|--2-------------------|
-----------------------|---------------3--------|-------3--------------|
-----3-----------------|------------------------|----------------------|
                                                                         
-----0-----------------|----------------------|--0-----0--3-------------|
-----1-----------------|--1---------3---------|-----1-----1----------5--|
-----0----2------0--2--|----------------------|-------------------------|
-----------------------|-------3---------3----|--------2----------------|
--3--------------------|----------------------|--3-----------2----0-----|
-----------------------|--1---------1---------|-------------------------|
                                                
--3-----1-----0---------|---------------------||
-------------------3----|--1---------1--------||
-----2-----0------------|---------------------||
-------------------3----|--2---------2--------||
------------------------|---------------------||
------------------------|-------3-------------||
Comments