Jefferson Blind Lemon - Easy Rider Blues Chords & Tabs

 

Easy Rider Blues Chords & Tabs

Jefferson Blind Lemon Chords & Tabs

Version: 1 Type: Tab 0 ratings
1 star 2 stars 3 stars 4 stars 5 stars
comments

Easy Rider Blues Tab

Artist : Blind Lemon Jefferson
Song   : Hotdogs
________________________________________________
Added by Mikhailo (tabteam@ultimate-guitar.com)
________________________________________________
[ Tab from: http://www.guitartabs.cc/tabs/j/jefferson_blind_lemon/easy_rider_blues_tab.html ]
                                                         
E||--------------------------|-----3--------------------|
B||---0-----0--3----------3/-|--5-----5--------3--0-----|
G||*-----3-------------------|-----------2/-4--------0--|
D||*--------0----------0-----|--------0-----------------|
A||--------------------------|--0-----------------------|
E||---3-----------3----------|--------------0-----2-----|
                                                                 
----------------3--------------------|-----3--3--3--------------|
----------3/-5-----5--------3--0-----|-----0--0--0--------------|
----------------------2/-4--------0--|-----0--0--0--------------|
-------0-----------0-----------------|--------------------------|
-------------0-----------------------|--------------------0--2--|
--3----------------------0-----2-----|--3-----------3--3--------|
                                                     
--------0--3-------------|-----3--------------------|
-----1--1--1-------1--3/-|--5-----5--------3--0-----|
--------0--0-------0-----|-----------2/-4--------0--|
--------2----------2-----|--------0-----------------|
--3----------------------|--0-----------------------|
--------------3----------|--------------------2-----|
                                                                
----------------3--------------------|-----3--3--3-------3-----|
----------3/-5-----5--------3--0-----|-----0--0--0-------0--3/-|
----------------------2/-4--------0--|-----0--0--0-------0-----|
-------0-----------0-----------------|-------------------------|
-------------0-----------------------|-------------------------|
--3----------------------0-----2-----|--3-----------3----------|
                                                     
-----5-----5-------------|-----3--------------------|
--7--------6b---------3/-|--5--------------3--0-----|
-------------------------|-----------2/-4--------0--|
--------0----------0-----|--------0-----------------|
--0-----------0----------|--0-----------------------|
-------------------------|--------------0-----2-----|
                                                                
-----3-----------3--------------------|-----3--3--3-------3----|
-----0-----3/-5-----5--------3--0-----|-----0--0--0-------0----|
-----------------------2/-4--------0--|-----0--0--0-------0----|
--------0-----------0-----------------|------------------------|
--------------0-----------------------|------------------------|
--3-----------------------0-----2-----|--3-----------3---------|

-------3-------------||
-------0-------------||
-------0------------*||
--------------------*||
---------------------||
--3------------------||
Comments