Jefferson Airplane - White Rabbit Chords & Tabs

 

White Rabbit Chords & Tabs

Jefferson Airplane Chords & Tabs

Version: 2 Type: Bass Tab 0 ratings
1 star 2 stars 3 stars 4 stars 5 stars
comments

White Rabbit Bass Tab

White Rabbit - Jefferson Airplane

  intro/verse
G|---------------------------------------------------------------|
D|---------------------------------------------------------------|
A|9-9-0--9-099-9-0--9-0910-10-0---10-01010-10-0---10-0109--simile|
E|-----89---------89-----------910-------------910---------------|

G|------------7----------------------------|-----------------------------------|
D|7-7-7-7-9---------7---7---7--------------|--7---7-----------7----7----7------|
A|-----------------------------3459-9-0--9-|--------3-335-53---------------3457|
E|----------------55--55--55-----------89--|55--55-5--------55-5-55-5-55-7-----|
[ Tab from: http://www.guitartabs.cc/tabs/j/jefferson_airplane/white_rabbit_btab_ver_2.html ]
G|--------------------------------------------------------------------|
D|------7\5----5----53--7----7----7-------9-------9-------7-7-7-------|
A|557-55---5-55-5-55-----------------34577-7-750---7-757--------9---9-|
E|--------------------5--5-55-5-55--------------57------5--------789--|

   G|------------------------------------|
   D|------------------------------------|
   A|9-0--9-099-9-0--9-099-9-0--9--simile|
   E|---89---------89---------89---------|

G|------------------------------------------------------------------------------------|
D|------------------------------------------------------------------------------------|
A|0910-10-0---10-01010-10-0---10-0109-9-0--9-099-9-0--9-0910-10-0---10-01010-10-0---10|
E|---------910-------------910-----------89---------89-----------910-------------910--|

G|---------------------------------------------------------------------------|
D|--7----7-----------7---7---7-------7----7----7---------7----7----7--7-7----|
A|---------323453---------------775----------------5675----------------------|
E|5--5-55-5------5355--55--55--5---55-5-55-5-55-5-5----55-5-55-5-55-5--5-55--|

tabbed by Achilles (blue_sincere@hotmail.com)
Comments