Jefferson Airplane - Its No Secret Chords & Tabs

 

Its No Secret Chords & Tabs

Jefferson Airplane Chords & Tabs

Version: 1 Type: Tab 0 ratings
1 star 2 stars 3 stars 4 stars 5 stars
comments

Its No Secret Tab

   
#----------------------------------PLEASE NOTE--------------------------------#
#This file is the author's own work and represents their interpretation of the#
#song. You may only use this file for private study, scholarship, or research.#
#-----------------------------------------------------------------------------#
"It's No Secret"
  (Marty Balin)

Intro [bass line and chords shown]:

                         Ab  Bb        [2X]
 v   v   v   v     v   v   v   v
-----------------|-3-----1---------|
-3-3-3-3-3-3-3-3-|-----------------|
-----------------|-----------------|
-----------------|-----------------|
[ Tab from: http://www.guitartabs.cc/tabs/j/jefferson_airplane/its_no_secret_tab.html ]
       Ab  Bb        Bb  Ab
 v   v   v   v     v   v   v   v
-5-----3---------|-7-----5---------|
-----------------|-----------------|
-----------------|-----------------|
-----------------|-----------------|

[Note: no strict verse/chorus structure]

Guitar solo:

Bb       Ab       Bb       Ab                Bb
/ / / /  / / / /  / / / /  / / / /  / / / /  / / / /


* chords implied by vocal harmonies

** 12-string, capo I:

                  [4th time only]
--0-0-0----0-0-0------0-2-3-----
--3-5-5----3-5-5----------------
--2-4-5----2-4-5----------------
--------------------------------
--------------------------------
--------------------------------

[song is in Eb from this point on]

-- another ace 60's tab from Andrew Rogers
Comments