Jeff Buckley - Last Goodbye Chords & Tabs

 

Last Goodbye Chords & Tabs

Jeff Buckley Chords & Tabs

Version: 3 Type: Tab 0 ratings
1 star 2 stars 3 stars 4 stars 5 stars
comments

Last Goodbye Tab

Last goodbye tab

This is pretty well note for note with the acoustic version on the Live at 
Chicago dvd (thanks Josh), and very close to the version on Grace... Most of the words
are lined up with the chords, but I haven't written all of the strumming in, so you'll
have to rely on your own inspiration there ;)
      Enjoy,
           Brad

Intro - acoustic version, the normal version just has the slide on those 
frets, but instead of going to the open string, it goes to the 12th fret. 
Also the bass notes aren't played...

D|-----2---2---2---5-5---5---0---0---0---7-7---7---|
B|-----2---2---2---5-5---5---0---0---0---7-7---7---|
G|-----2---2---2---5-5---5---0---0---0---7-7---7---|   x 2
D|-----2---2---2---5-5---5---0---0---0---7-7---7---|
G|-----2---2---2---5-5---5---0---0---0---7-7---7---|
D|---4---4---4---4-----7---2---2---2---2-----9-----|

D|--12--12--12--0---0--12--12--12---0---0-
B|---0---0---0--0---0---0---0---0---0---0-
G|---0---0---0--0---0---0---0---0---0---0-
D|--12--12--12-12--12--12--12--12--12--12-
G|--12--12--12-11--11-h12--12--12--11--11-
D|---0---0---0--0---0---0---0---0---0---0-

D|--12--12--12--0---0---12--12--12--0---0-|
B|---0---0---0--0---0----0--0----0--0---0-|
G|---0---0---0--0---0----0--0----0--0---0-|
D|--12--12--12-12--12---12--12--12-12--12-|
G|-h12--12--12-11--11--h12--12--12-11--11-|
D|---0---0---0--0---0----0---0---0--0---0-|

D|-----2---2---2---5-5---5---0---0---0---7-7---7---|
B|-----2---2---2---5-5---5---0---0---0---7-7---7---|
G|-----2---2---2---5-5---5---0---0---0---7-7---7---|   x 3
D|-----2---2---2---5-5---5---0---0---0---7-7---7---|
G|-----2---2---2---5-5---5---0---0---0---7-7---7---|
D|---4---4---4---4-----7---2---2---2---2-----9-----|

D|----0------------0---|
B|----0------------0---|
G|----0------------0---|
D|---11------------9---|
G|----9------------7---|
D|---11------------9---|

D|--12--12--12--0--0--12--12--12--0--0--
B|---0---0---0--0--0---0---0---0--0--0--
G|---0---0---0--0--0---0---0---0--0--0--
D|--12--12--12-12-12--12--12--12-12-12--
G|--12--12--12-11-11-h12--12--12-11-11--
D|---0---0---0--0--0---0---0---0--0--0--
        "this is our last goodbye"

D|--0--------------------0----------2-------------0----
B|--0--------------------0----------0-------------0----
G|--7--------------------6----------0-------------4----
D|--9--------------------7----------2-------------5----
G|--0--------------------0----------0-------------0----
D|--9--------------------7----------2-------------5----
 "I hate to see the love between us die, but it's over"

D|------------0--------------------------0------------------------0-0--
B|------------5--------------------------0------------------------0-0--
G|------------6--------------------------6------------------------6/7--
D|------------7--------------------------7------------------------7/9--
G|------------7--------------------------0------------------------0-0--
D|------------0--------------------------7------------------------7/9--
   "Just hear this and then I'll go, you gave me more to live for"

D|--0-------------------0------
B|--0-------------------0------
G|--4-------------------2------
D|--5-------------------4------
G|--0-------------------0------
D|--5-------------------4------
   "More than you'll ever know"   
                                        
D|--12--12--12--0---0--12--12--12---0---0-
B|---0---0---0--0---0---0---0---0---0---0-
G|---0---0---0--0---0---0---0---0---0---0-
D|--12--12--12-12--12--12--12--12--12--12-
G|--12--12--12-11--11-h12--12--12--11--11-
D|---0---0---0--0---0---0---0---0---0---0-

D|--12--12--12--0---0---12--12--12--0---0-|
B|---0---0---0--0---0----0--0----0--0---0-|
G|---0---0---0--0---0----0--0----0--0---0-|
D|--12--12--12-12--12---12--12--12-12--12-|
G|-h12--12--12-11--11--h12--12--12-11--11-|
D|---0---0---0--0---0----0---0---0--0---0-|

D|--12--12--12--0--0--12--12--12--0--0--0---------0---------------5----
B|---0---0---0--0--0---0---0---0--0--0--0---------0---------------0----
G|---0---0---0--0--0---0---0---0--0--0--7---------6---------------4----
D|--12--12--12-12-12--12--12--12-12-12--9---------7---------------5----
G|--12--12--12-11-11-h12--12--12-11-11--0---------0---------------0----
D|---0---0---0--0--0---0---0---0--0--0--9---------7---------------5----
   "This is our last embrace,    must i dream and always see your face"

D|---2-----------------0----0---0---
B|---0-----------------0----7---8\7-
G|---0-----------------6----7---7---
D|---2-----------------7----0---0---
G|---0-----------------0----7---7---
D|---2-----------------7----0---0---
"Why can't we overcome this wall"

D|----2---2---2---2---2-2---0---0---0---0---0-0-|
B|----2---2---2---2---2-2---0---0---0---0---0-0-|
G|----2---2---2---2---2-2---0---0---0---0---0-0-|
D|----2---2---2---2---2-2---0---0---0---0---0-0-|
G|----2---2---2---2---2-2---0---0---0---0---0-0-|
D|--4---4---4---4---4-----2---2---2---2---2-----|
   "Well, maybe it's..."
                    
D|-------------------------------------------------|
B|-------------------------------------------------|
G|----5---5---5---5-5---5------5---5---5---3-3---3-|   x 2
D|----3---3---3---3-3---3------3---3---3---1-1---1-|
G|----5---5---5---5-5---5------5---5---5---3-3---3-|
D|--0---0---0---0-----0------0---0---0---0-----1---|
                                               ^thumb that note
[ Tab from: http://www.guitartabs.cc/tabs/j/jeff_buckley/last_goodbye_tab_ver_3.html ]
D|-----2---2---2---5-5---5---0---0---0---7-7---7---|
B|-----2---2---2---5-5---5---0---0---0---7-7---7---|
G|-----2---2---2---5-5---5---0---0---0---7-7---7---|   x 3
D|-----2---2---2---5-5---5---0---0---0---7-7---7---|
G|-----2---2---2---5-5---5---0---0---0---7-7---7---|
D|---4---4---4---4-----7---2---2---2---2-----9-----|
       "Kiss me, please kiss me..."

D|---0------------------0-----------------------
B|---0------------------0-----------------------
G|---0------------------7-----------------------
D|--11------------------9-----------------------  etc.
G|---9------------------7-----------------------
D|--11------------------9-----------------------
    "I'd only make you cry, this is our last goodbye"

This is the violin bit that he plays on guitar live. It's hard to 
transcribe with the correct timing, but i've done my best. All the strings 
in this section that don't have any notes on them are played OPEN, it 
would be harder to read if i put all those zeros in.

                                *quick
D|--12--12--12--12--11--13--12--11\9\7\5-
B|---------------------------------------
G|---------------------------------------
D|--12--12--12--12--11--13--12--11\9\7\5-
G|---------------------------------------
D|---------------------------------------

D|-----------------------------------------------------------------
B|-----------------------------------------------------------------
G|-12-12-12-11-11-4-4-7-7-6/7\6-2-2-2/4-4-6-11-11-11/12-11/12\11\6-
D|-----------------------------------------------------------------
G|-12-12-12-11-11-4-4-7-7-6/7\6-2-2-2/4-4-6-11-11-11/12-11/12\11\6-
D|-----------------------------------------------------------------

D|-------------------------------------------------|
B|-------------------------------------------------|
G|-6-6/7-6/7\6-4/6-6-4/6-6-2/4-4-1-2-2/14-14-14-14-|
D|-------------------------------------------------|
G|-6-6/7-6/7\6-4/6-6-4/6-6-2/4-4-1-2-2/14-14-14-14-|
D|-------------------------------------------------|

D|--0----0----0------0----0---0---2--4-5-7-9----7----5--
B|--0----0----0------0----0---0---0--0-0-0-0----0----0--
G|--7----6----4------6----7---6---0--2-4-6-7----6----4--
D|--9----7----5------7----9---7---2--4-5-7-9----7----5--
G|--0----0----0------0----0---0---0--0-0-0-0----0----0--
D|--9----7----5------7----9---7---2--4-5-7-9----7----5--

D|--0---0-0-0-0-0---0---0-0-0-0-0---0---0-0-0-0-0---0---0-0-0-0-0--
B|--7---7-7-8\7-7---7---7-7-8\7-7---7---7-7-8\7-7---7---7-7-8\7-7--
G|--7---7-7-7-7-7---7---7-7-7-7-7---7---7-7-7-7-7---7---7-7-7-7-7--   x 3
D|--0---0-0-0-0-0---0---0-0-0-0-0---0---0-0-0-0-0---0---0-0-0-0-0--
G|--7---7-7-7-7-----0---0-0-0-0-0---6---6-6-6-6-6---0---0-0-0-0-0--
D|--0---0-0-0-0-0---x---x-x-x-x-x---7---7-7-7-7-7---5---5-5-5-5-5--
   "Did you say..."

D|--0--0------0--0---------------0-----------------------0---------------|
B|--8--3------1--0---------------3-----------------------3---------------|
G|--7--2------0--0---------------4-----------------------4---------------|
D|--9--4------2--0---------------5-----------------------5---------------|
G|--9--4------2--0---------------5-----------------------4---------------|
D|--0--0------0--0---------------0-----------------------0---------------|
   "may   -   be      you didn't know him at all, didn't know him at all"

D|--------2---2---2---5-5---5---0---0---0---7-7---7---|
B|--------2---2---2---5-5---5---0---0---0---7-7---7---|
G|--------2---2---2---5-5---5---0---0---0---7-7---7---|   x 2
D|--------2---2---2---5-5---5---0---0---0---7-7---7---|
G|--------2---2---2---5-5---5---0---0---0---7-7---7---|
D|--2-3-4---4---4---4-----7---2---2---2---2-----9-----|

D|--12--12--12--0--0--12--12--12--0--0--
B|---0---0---0--0--0---0---0---0--0--0--
G|---0---0---0--0--0---0---0---0--0--0--
D|--12--12--12-12-12--12--12--12-12-12--
G|--12--12--12-11-11-h12--12--12-11-11--
D|---0---0---0--0--0---0---0---0--0--0--
   "Well, the bells out in the churchtower chime,"


D|----------0---------------0--------0---0--
B|----------0---------------0--------0---0--
G|----------9---------------0--------0---0--
D|---------10---------------9-------11--12--
G|----------9---------------7--------9--11--
D|--------------------------9-------11--12--
   "Burning clues into this heart of mine"

D|--------0---------------0------------------0--------------7-------
B|--------5---------------7------------------8--------------0-------
G|--------6---------------7------------------7--------------7-------
D|--------7---------------0------------------0--------------0-------
G|--------7---------------7------------------7--------------7-------
D|--------0---------------0------------------0--------------0-------
"Thinking so hard, on her soft eyes, and the memories offer signs that it's"

D|-------------------------------------------------|
B|-------------------------------------------------|
G|----5---5---5---5-5---5------5---5---5---3-3---3-|   x 2
D|----3---3---3---3-3---3------3---3---3---1-1---1-|
G|----5---5---5---5-5---5------5---5---5---3-3---3-|
D|--0---0---0---0-----0------0---0---0---0-----1---|
    "O - ver..."

D|--0-----0-----0-----0-----0---||
B|--3-----3-----0-----0-----3---||
G|--2-----4-----2-----4-----4---||
D|--0-----2-----4-----5-----5---||
G|--2-----0-----x-----0-----5---||
D|--0-----------4-----5---------||

  Well, there you go, that's all of it! Bon appetite!
Any questions, just email them to brad8wood@hotmail.com.
Comments