Jeff Buckley - Last Goodbye Chords & Tabs

 

Last Goodbye Chords & Tabs

Jeff Buckley Chords & Tabs

Version: 3 Type: Bass Tab

Last Goodbye Bass Tab

   
Last Goodbye

from the album Grace by Jeff Buckley

The timing can be hard to see from the tab so listen closely to the track -
you will get the idea... 


Drop D tuning - D A D G

Riff
|----------------------------------------------------------|
|*---7---7---7------10----10----5---5---5--------12----12-*|
|*-9---9---9---9/12----12-----7---7---7----12/14----14----*|
|----------------------------------------------------------|

Intermezzo
|-------------------------|----------------------|
|*-----------------------*|----------------------|
|*------5----------------*|----------------------|
|-0--0------4-4--5-4-2-4--|-0--0------4-4--5-4-2-|


play "Riff" again, then 


|---------------------|
|---------------------|
|---------------------|
|-7---7---7-7--9--5~--|


1st Verse
|------------------------------------------------------------------|
|---------------------------------------------------------2p0------|
|---------------------5---------------------------------------2-5--|
|-0---0-0--8p7-5-0-0------0-0-5-7-9---77---2--22--4-5--55----------|

|-----------------------------------|
|----2---------------------------x4-|
|-55-----------------------x2-x5----|
|--------7---79-10p9-7-5------------|


Play "Intermezzo"


2nd verse
|-------------------------------------------------------------------------|
|-------------------------------------------------------------------------|
|---------------------------------------------------------7---7---5---5-5-|
|-0---0-0--8p7-5-0-0------0-0-5-7-9---77---5---55-7h8-7-5------x7------x--|
[ Tab from: http://www.guitartabs.cc/tabs/j/jeff_buckley/last_goodbye_btab_ver_3.html ]
|-------------------------------------------------|
|---7--7--7-----10----10---5--5--5--4h5-7-5--4----|
|--9--9--9--9/12---12-----7--7--7--------------7--|
|-------------------------------------------------|

|------5-5--5--------------5-5-x3-3--|
|*------------3h4p3h4---------------*|
|*----------------------------------*|
|-00-0-----0----------00-0-----------|


Play "Riff" again, then


|---------------------|
|---------------------|
|---------------------|
|-7---7---7-7--9--5~--|

Intermezzo (with this variation)
|-------------------------|-----------------------------------------------|
|*-----------------------*|-----------------------------------------------|
|*------5---------5------*|-------5---0-2-0-5-4-2--4--5--x2-x4-5----------|
|-0--0------4-5-4----7-5--|-0--0---------------------------------5--x5-9\-|

|------------------------------------------------------------|
|----------------------4-5-----------------------------------|
|-2--4--5--x2-x4-5-7---------2--4-5--x2-4-5------------------|
|-------------------------------------------5555555555555555-|

|--------------------------------|---------------------------------------|
|*---------------------------54-*|---------------------------------------|
|*-5-555-55-52-20-000-00-0------*|-5-555-55-52-20-000-00-0-----7---------|
|-------------------------5------|------------------------5--5-----9-\-7-|

|----------------------------|
|----------------------------|
|------7--7-9h10p9-7-5---xxx-|
|-5--5-----------------------|


Play "Riff"

Play "Intermezzo" (with variations)


|------5-5--5--------------5-5-x3-3--|
|*------------3h4p3h4---------------*|
|*----------------------------------*|
|-00-0-----0----------00-0-----------|

End
|--------------------------|
|---------------------/14~-|
|-----5--7-7--9---10-------|
|-0-0----------------------|

~ = let ring
x = ghost note

Tabbed by Casper Nørgaard