Jeff Buckley - Je Nen Connais Pas La Fin Chords & Tabs

 

Je Nen Connais Pas La Fin Chords & Tabs

Jeff Buckley Chords & Tabs

Version: 1 Type: Tab 0 ratings
1 star 2 stars 3 stars 4 stars 5 stars
comments

Je Nen Connais Pas La Fin Tab

-----------------------------------------------------------------------------
			     Je n'en connais pas la fin - Jeff Buckley
-----------------------------------------------------------------------------
Tabbed by: Dr smith
Email: Alex_carson@hotmail.com
Tuning: EADGBe

This is a great cover of a classic Edith Piaf song. He played it live at 
L'olympia.
As is typical Buckley he ad libs a couple of notes here and there
so be warned this is not a note for note tab, this is ,however, relatively
exact. 

Fingerpick all the way through this. The intro and chorus will take
some time to build up to the correct speed. 


Introduction:

E--12---------|-11-----------|-12---------|-9---------|
B---------9---|--------9-----|----9---9---|---9--9----|
G-----9-----9-|----9-------9-|------------|-----------|
D-------9-----|------9---9---|------9---9-|----9---9--|
A-------------|--------------|------------|-----------|
E--12---------|--7-----------|-12---------|-----------|


E--11---------|--9-----11-|-9-----9----|--------------|
B-----9---9---|-----------|------------|-12-----------|
G-----------9-|-----------|---11----11-|----11-----11-|
D-------9-----|-----------|-9----------|-------13-----|
A---7---------|--9--------|------------|-14-----------|
E-------------|-----------|------------|--------------|


E--12-------------|-11-------------|-12------------|
B-----10----10----|----10----10----|----10---10----|
G--------11----11-|-------11----11-|-------9----9--|
D-----------------|--9-------------|-11------------|
A-----------------|----------------|---------------|
E--12-------------|----------------|---------------|


E-9-------------|-11-------------|-12--------14-|-12---9--9-|
B---10----10----|----10----10----|----10--------|------9--9-|
G------11----11-|-------11----11-|-------11-----|------9--9-|
D---------------|--9-------------|--9-----------|------9--9-|
A-9-------------|----------------|--------------|-----------|
E---------------|----------------|--------------|-12--------|


Verse:

E---------------------------7--7--------------------------------|
B----8-8-----8-8-----8-8----8--8-----8--8-----8-8----7-7----7-7-|
G----9-9-----8-8-----7-7----9--9-----9--9-----9-9----8-8----8-8-|
D----9-9-----9-9-----9-9----11-11----10-10----9-9----9-9----9-9-|
A--7-------7-------7------7--------7--------7-------------9-----|
E--------------------------------------------------7------------|


E----------------------------------------------------7-----|
B----7-7----7-7----7-7----7-7----7-7----7-7--------7-7-7---|
G----8-8----8-8----8-8----8-8----9-9----9-9--------8---8---|
D----9-9----9-9----9-9----9-9----8-8----8-8----9-8---------|
A---------9------9-------------9------9--------------------|
E--7--------------------7--------------------7-------------|


E--------------------7-------------------------|
B--8-----8--8-----8--8-----8--7----------------|
G--9-----9--8-----8--7-----7--8----------------|
D--9-----9--9-----9--9-----9--7--9-------------|
A--7-----7--7-----7--7-----7-------------------|
E-----------------------------7----------------|

Pre-Chorus:
[ Tab from: http://www.guitartabs.cc/tabs/j/jeff_buckley/je_nen_connais_pas_la_fin_tab.html ]
E--5-7-5----12-12---5-7-5----12-12---5-7-5-----12-12-----------|
B--7-8-7-----9--9---7-8-7-----9--9---7-8-7-----9--9------------|
G------------9--9-------------9--9-------------9--9-----7------|
D------------9--9-------------9--9-------------9--9-----7----9-|
A---------7-----------------7----------------7-------------9---|
E------------------------------------7-------------------------|


E---------7--6------------------------------------------------|
B----------------10--9--7-------------------------------------|
G-----------------6--7--8-------------------------------------|
D---------9--10-----------------------------------------------|
A-------------------------------------------------------------|
E-----7-------------------------------------------------------|

Chorus: (The first half of this is the same as the intro.)

E--12---------|-11-----------|-12---------|-9---------|
B---------9---|--------9-----|----9---9---|---9--9----|
G-----9-----9-|----9-------9-|------------|-----------|
D-------9-----|------9---9---|------9---9-|----9---9--|
A-------------|--------------|------------|-----------|
E--12---------|--7-----------|-12---------|-----------|


E--11---------|--9-----11-|-9-----9----|--------------|
B-----9---9---|-----------|------------|-12-----------|
G-----------9-|-----------|---11----11-|----11-----11-|
D-------9-----|-----------|-9----------|-------13-----|
A---7---------|--9--------|------------|-14-----------|
E-------------|-----------|------------|--------------|


E--12-------------|-11-------------|-12------------|
B-----10----10----|----10----10----|----10---10----|
G--------11----11-|-------11----11-|-------9----9--|
D-----------------|--9-------------|-11------------|
A-----------------|----------------|---------------|
E--12-------------|----------------|---------------|


E-9-------------|-11-------------|-12--------14-|-12---9--9-|
B---10----10----|----10----10----|----10--------|------9--9-|
G------11----11-|-------11----11-|-------11-----|------9--9-|
D---------------|--9-------------|--9-----------|------9--9-|
A-9-------------|----------------|--------------|-----------|
E---------------|----------------|--------------|-12--------|



E-16------------14------------16-----------------------------|
B---15--15--15----15--15--15----15--15--15----17------17-----|
G-----16--16--------16--16--------16--16--------16--16-------|
D---------------------------------------------14--14---------|
A-14------------14------------14-----------------------------|
E------------------------------------------------------------|


E--14------------16----14---------------|
B----15--15--15----17----14--14--14--17-|
G------16--16--------------14--14-------|
D--14------------14---------------------|
A---------------------------------------|
E---------------------------------------|


E--12-----------11------------12----------9----------------|
B-----10-10-10----10--10--10----10-10-10---10-10-10--------|
G-------9--9--------11--11--------9--9-------9--9----------|
D--11------------9-----------------------------------------|
A-----------------------------11----------9----------------|
E----------------------------------------------------------|


E--11-------11--12--14---12----9---9------------------------|
B-----10--10-------------------9---9------------------------|
G-------11---------------------9---9------------------------|
D------------------------------9---9------------------------|
A---9------------9-------12---------------------------------|
E-----------------------------------------------------------|

Go back to Verse.

Song structure:

Intro
Verse
Pre-chorus
Chorus
Verse
Chorus
Verse
Chorus

Then there's some weird thing he adds at the end which i'm not sure 
how to play. But the main bulk of the song is there for you. Sorry
It's not as comprehensive as some of my other tabs.
Comments