Jeff Buckley - Grace Chords & Tabs

 

Grace Chords & Tabs

Jeff Buckley Chords & Tabs

Version: 1 Type: Tab 1 rating
1 star 2 stars 3 stars 4 stars 5 stars
comments

Grace Tab

This version of grace I found is 100% correct
  
                                           ~Beaver~




INTRO PART 1: - Clean.
-------------

E|-------1-----------------------1-----3p1---------|
B|-----1---3p1-----------------1---3p1-----3p1-----|
G|---1---------3p1-3p1-3p1---1-----------------3p1-|
D|-3-----------------------3-----------------------|
A|-------------------------------------------------|
D|-------------------------------------------------|

E|-------3-----------------------3-----5p3---------|
B|-----3---5p3-----------------3---5p3-----5p3-----|
G|---3---------5p3-5p3-5p3---3-----------------5p3-|
D|/5-----------------------5-----------------------|
A|-------------------------------------------------|
D|-------------------------------------------------|

E|-0-----------------------------------------------|
B|-0-----------------------------------------------|
G|-0-----------------------------------------------|
D|-2-----------------------------------------------|
A|-2-----------------------------------------------|
D|-2-----------------------------------------------|



INTRO PART 2: - Clean. Let ring.
-------------

E|-----------------------------------------17-17-17----15----------------|
B|-14h15-15-14-x-14-14h15-15-14-x-14-14h15-15-15-15-14-14-14-17-14-14----|
G|-14----14-14-x-14-------14-14-x-14-14----14-14-14-14-14-14-14-14-14-14-| PLAY
D|-14h16-16-14-x-14-14h16-16-14-x-14-14h16-------------------------14-14-|  x3
A|-----------------------------------------------------------------------|
D|-----------------------------------------------------------------------|

E|-----------------------------------------------------------------------|
B|-14h15-15-14-x-14-14h15-15-14-x-14-15----15-15----15-15----------------|
G|-14----14-14-x-14-------14-14-x-14--0-----0--0-----0--0----------------|
D|-14h16-16-14-x-14-14h16-16-14-x-14--0-----0--0-----0--0----------------|
A|-----------------------------------------------------------------------|
D|-----------------------------------------------------------------------|



VERSE: - Clean.  Another guitar plays rhythm slashes.
------

E|-------------------------------------------------|
B|-------------------------------------------------|
G|-------0-----------0-----------0-----------0-----|
D|-----2---2-------2---2-------3---3-------2---2---|
A|---2-------2---2-------2---3-------3---2-------2-|
D|-2-----------2-----------3-----------2-----------|

E|-------------------------------------------------|
B|-------------------------------------------------|
G|-------0-----------0-----------0-----------0-----|
D|-----1---1-------1---1-------3---3-------2---2---|
A|---1-------1---1-------1---3-------3---2-------2-|
D|-1-----------1-----------3-----------2-----------|

E|-------------------------------------------------|
B|-------------------------------------------------|
G|-------0-----------0-----------0-----------0-----|
D|-----1---1-------1---1-------2---2-------2---2---|
A|---1-------1---1-------1---2-------2---2-------2-|
D|-1-----------1-----------2-----------2-----------|



PRE-CHORUS: - Clean.  Let ring.
-----------

E|-------------------------------------------------|
B|-0---0-0-0-0-4---4-4-4-4-5---5-5-5-5-5/7-7-7-7-7-|
G|-0---0-0-0-0-2---2-2-2-2-4---4-4-4-4-4/6-6-6-6-6-|
D|-2---2-2-2-2-4---4-4-4-4-5---5-5-5-5-5/7-7-7-7-7-|
A|-2-----------------------------------------------|
D|-2-----------4-----------5-----------5/7---------|

E|-------------------------------------------------|
B|-7---7-7-7-7-7---7-7-7-7-7---7-7-7-7-7---7-7-7-0-|
G|-7---7-7-7-7-7---7-7-7-7-6---6-6-6-6-6---6-6-6-0-|
D|-9---9-9-9-9-9---9-9-9-9-9---9-9-9-9-9---9-9-9-0-|
A|-------------------------0-----------0-----------|
D|-9-----------9-----------------------------------|

E|-------------0-----------------------0-----------|
B|-0---0-0-0-0-0---0-0---------0-0-0-0-0---0-0-0-0-|
G|-0---0-0-0-0-0---0-0---------0-0-0-0-0---0-0-0-0-|
D|-2---2-2-2-2-2---2-2-0-2-----2-2-2-2-2---2-2-2-2-|
A|-2---2-2-2-2-2---2-2---------2-2-2-2-2---2-2-2-2-|
D|-2-----------2-----------0h2---------2-----------|

E|-------------------------------------------------|
B|-0---0-0-0-0-4---4-4-4-4-5---5-5-5-5-5/7-7-7-7-7-|
G|-0---0-0-0-0-2---2-2-2-2-4---4-4-4-4-4/6-6-6-6-6-|
D|-2---2-2-2-2-4---4-4-4-4-5---5-5-5-5-5/7-7-7-7-7-|
A|-2-----------------------------------------------|
D|-2-----------4-----------5-----------5/7---------|

E|----------------------------------------------------------|
B|-10---10-10-10-10-10---10-10-10-7-7---7-7-7-8-7---7-7-7-0-|
G|--7----7--7--7--7--7----7--7--7-7-6---6-6-6-6-6---6-6-6-0-|
D|--9----9--9--9--9--9----9--9--9-9-9---9-9-9-9-9---9-9-9-0-|
A|----------------------------------0-----------0-----------|
D|--9----------------9--------------------------------------|

E|-------------0-----------------------0-----------|
B|-0---0-0-0-0-0---0-0-0-0-0---0-0-0-0-0---0-0-0-0-|
G|-0---0-0-0-0-0---0-0-0-0-0---0-0-0-0-0---0-0-0-0-|
D|-2---2-2-2-2-2---0-0-0-0-2---2-2-2-2-2---2-2-2-2-|
A|-2---2-2-2-2-2-----------2---2-2-2-2-2---2-2-2-2-|
D|-2-----------2-----------2-----------2-----------|



CHORUS:
-------
[ Tab from: http://www.guitartabs.cc/tabs/j/jeff_buckley/grace_tab.html ]
E|-------------0-----------------------0-----------|
B|-------------0-----------------------0-----------|
G|-0---0-0-0-0-0---0-0-0-0-0---0-0-0-0-0---0-0-0-0-|
D|-3---3-3-3-3-3---3-3-3-3-2---2-2-2-2-2---2-2-2-2-|
A|-3---3-3-3-3-3---3-3-3-3-2---2-2-2-2-2---2-2-2-2-|
D|-3---3-3-3-3-3---3-3-3-3-2---2-2-2-2-2---2-2-2-2-|\
                                                    PLAY x2
E|-------------0-----------------------0-----------|/
B|-------------0-----------------------0-----------|
G|-0---0-0-0-0-0---0-0-0-0-0---0-0-0-0-0---0-0-0-0-|
D|-1---1-1-1-1-1---1-1-1-1-1---1-1-1-1-1---1-1-1-1-|
A|-1---1-1-1-1-1---1-1-1-1-1---1-1-1-1-1---1-1-1-1-|
D|-1---1-1-1-1-1---1-1-1-1-1---1-1-1-1-1---1-1-1-1-|



CHORUS END 1:
-------------

E|-------------0-----------------------0-----------|
B|-------------0-----------------------0-----------|
G|-0---0-0-0-0-0---0-0-0-0-0---0-0-0-0-0---0-0-0-0-|
D|-2---2-2-2-2-2---2-2-2-2-2---2-2-2-2-2---2-2-2-2-|
A|-2---2-2-2-2-2---2-2-2-2-2---2-2-2-2-2---2-2-2-2-|
D|-2---2-2-2-2-2---2-2-2-2-2---2-2-2-2-2---2-2-2-2-|

(After playing this play the introduction riff)



CHORUS END 2:
-------------

E|-------------0-----------------------------------|
B|-------------0-----------------------------------|
G|-0---0-0-0-0-0---0-0-0-0-0-----0---0-0---x-x-x-x-|
D|-2---2-2-2-2-2---2-2-2-2-2-----2---2-2---x-x-x-x-|
A|-2---2-2-2-2-2---2-2-2-2-2-----2---2-2---x-x-x-x-|
D|-2---2-2-2-2-2---2-2-2-2-2-----2---2-2---x-x-x-x-|



BRIDGE:
-------

E|-------------0-----------------------0-----------|
B|-------------0-----------------------0-----------|
G|-0---0-0---0-0---0---0-0-0---0-0---0-0---0---0-0-|
D|-1---1-1---1-1---1---1-1-3---3-3---3-3---3---3-3-|
A|-1---1-1---1-1---1---1-1-3---3-3---3-3---3---3-3-|
D|-1---1-1---1-1---1---1-1-3---3-3---3-3---3---3-3-|

E|-------------0-----------------------0-----------|
B|-------------0-----------------------0-----------|
G|-0---0-0---0-0---0---0-0-0---0-0---0-0-----0-0-0-|
D|-5---5-5---5-5---5---5-5-5---5-5---5-5-----5-5-5-|
A|-5---5-5---5-5---5---5-5-5---5-5---5-5-----5-5-5-|
D|-5---5-5---5-5---5---5-5-5---5-5---5-5-----5-5-5-|

E|-------------0-----------------------------------|
B|-------------0-----------------------------------|
G|-0---0-0---0-0-----0-0-0-0---0-0-0-0-0---0-0-0-0-|
D|-4---4-4---4-4-----4-4-4-3---3-3-3-3-2---2-2-2-2-|
A|-4---4-4---4-4-----4-4-4-3---3-3-3-3-2---2-2-2-2-|
D|-4---4-4---4-4-----4-4-4-3---3-3-3-3-2---2-2-2-2-|

E|-------------0-----------------------------------|
B|-------------0-----------------------------------|
G|-0---0-0-0-0-0---0-0-0-0-0---0-0---0-0---0-0-----|
D|-2---2-2-2-2-2---2-2-2-2-2---2-5---5-7---7-9-----|
A|-2---2-2-2-2-2---2-2-2-2-2---2-5---5-7---7-9-----|
D|-2---2-2-2-2-2---2-2-2-2-2---2-5---5-7---7-9-----|

E|-------------------------------------------------|
B|-0---0-0-0-0-4---4-4-4-4-5---5-5-5-5-5/7-7-7-7-7-|
G|-0---0-0-0-0-2---2-2-2-2-4---4-4-4-4-4/6-6-6-6-6-|
D|-2---2-2-2-2-4---4-4-4-4-5---5-5-5-5-5/7-7-7-7-7-|
A|-2-----------------------------------------------|
D|-2-----------4-----------5-----------5/7---------|\
                                                    PLAY x3
E|-------0---0-0---0-0-0-0-0---0-0-0---0---0-0-0---|/
B|-7-----0---0-0---0-0-0-0-0---0-0-0---0---0-0-0-0-|
G|-7-----7---7-7---7-7-7-7-6---6-6-6-7-6---6-6-6-0-|
D|-7h9---9---9-9---9-9-9-9-7---7-7-7-7-7---7-7-7-0-|
A|-------------------------------------------------|
D|-9---9-------9-----------7-----------7-----------|

E|-------------0-----------------------0-----------|
B|-------------0-----------0-----------0---0-0-0-0-|
G|-0---0-0-0-0-0---0-0-0-0-0---0-0-0-0-0---0-0-0-0-|
D|-2---2-2-2-2-2---2-2-2-2-2---2-2-2-2-2---2-2-2-2-|
A|-2---2-2-2-2-2---2-2-2-2-2---2-2-2-2-2---2-2-2-2-|
D|-2-----------2-----------2-----------2-----------|

(After playing this play the introduction riff)



FINAL VERSE: - Clean.  Another guitar plays rhythm slashes.
------------

E|-------------------------------------------------|
B|-------------------------------------------------|
G|-------0-----------0-----------0-----------0-----|
D|-----2---2-------2---2-------3---3-------2---2---|
A|---2-------2---2-------2---3-------3---2-------2-|
D|-2-----------2-----------3-----------2-----------|

E|-------------------------------------------------|
B|-------------------------------------------------|
G|-------0-----------0-----------0-----------0-----|
D|-----1---1-------1---1-------3---3-------2---2---|
A|---1-------1---1-------1---3-------3---2-------2-|
D|-1-----------1-----------3-----------2-----------|

E|-------------------------|
B|-------------------------|
G|-------0-----------0-----|
D|-----1---1-------1---1---|
A|---1-------1---1-------1-|
D|-1-----------1-----------|



FINAL CHORUS:
-------------

E|-0-0-0-0---0-0---0---0-0-0-0-0-0---0-0---0---0-0-|
B|-0-0-0-0---0-0---0---0-0-0-0-0-0---0-0---0---0-0-|
G|-0-0-0-0---0-0---0---0-0-0-0-0-0---0-0---0---0-0-|
D|-3-3-3-3---3-3---3---3-3-2-2-2-2---2-2---2---2-2-|
A|-3-3-3-3---3-3---3---3-3-2-2-2-2---2-2---2---2-2-|
D|-3-3-3-3---3-3---3---3-3-2-2-2-2---2-2---2---2-2-|\
                                                    PLAY x6
E|-0-0-0-0---0-0---0---0-0-0-0-0-0---0-0---0---0-0-|/
B|-0-0-0-0---0-0---0---0-0-0-0-0-0---0-0---0---0-0-|
G|-0-0-0-0---0-0---0---0-0-0-0-0-0---0-0---0---0-0-|
D|-1-1-1-1---1-1---1---1-1-1-1-1-1---1-1---1---1-1-|
A|-1-1-1-1---1-1---1---1-1-1-1-1-1---1-1---1---1-1-|
D|-1-1-1-1---1-1---1---1-1-1-1-1-1---1-1---1---1-1-|

E|-0-0-0-0---0-0---0---0-0-0-0-0-0---0-0---0---0-0-|
B|-0-0-0-0---0-0---0---0-0-0-0-0-0---0-0---0---0-0-|
G|-0-0-0-0---0-0---0---0-0-0-0-0-0---0-0---0---0-0-|
D|-3-3-3-3---3-3---3---3-3-2-2-2-2---2-2---2---2-2-|
A|-3-3-3-3---3-3---3---3-3-2-2-2-2---2-2---2---2-2-|
D|-3-3-3-3---3-3---3---3-3-2-2-2-2---2-2---2---2-2-|

E|-0-----------------------------------------------|
B|-0-----------------------------------------------|
G|-0-----------------------------------------------|
D|-1-----------------------------------------------|
A|-1-----------------------------------------------|
D|-1-----------------------------------------------|


---------------------------------------------
Transcribed By SANCCO (sancco@hotmail.com)
---------------------------------------------

Comments