Jeff Buckley - Everybody Here Wants You Chords & Tabs

 

Everybody Here Wants You Chords & Tabs

Jeff Buckley Chords & Tabs

Version: 1 Type: Bass Tab 0 ratings
1 star 2 stars 3 stars 4 stars 5 stars
comments

Everybody Here Wants You Bass Tab

   
Everybody Here Wants You
by Jeff Buckley from the album "Sketches for my Sweetheart the Drunks"

A partial and tentative tab by Xavier Zaviska (xzaviska@francemel.com).
For personal use only.  Please do not use or modify this tab
without acknowledgment.

Tuning: E A D G

Verse :

G:-------------------------------------------------------|
D:-----------------------------0---0-2-----0h2-----------|
A:-------------------------------0-----------------------|
E:--0--0-0---0--0-0---0--0-0-----------0-0------0-0------|

[ Tab from: http://www.guitartabs.cc/tabs/j/jeff_buckley/everybody_here_wants_you_btab.html ]
Chorus :

G:--------------------------------------|
D:------------0---0-2-----0h2-----------|
A:--------------0-----------------------|
E:---0--0-0-----------0-0------0-0------|

"I know everybody ..."

Break :

G:----------------------------------------------|
D:--------------2--3----------3--------0--2-----|
A:---------0h3--------0--3-------0--3-----------|
E:-0-00-----------------------------------------|

	"I know the tears ..."

Sorry for the end but I couldn't really figure it out...
Corrections? Questions? Comments? Email-me at xzaviska@francemel.com
Comments