Jeff Buckley - Dream Brother Chords & Tabs

 

Dream Brother Chords & Tabs

Jeff Buckley Chords & Tabs

Version: 1 Type: Tab 0 ratings
1 star 2 stars 3 stars 4 stars 5 stars
comments

Dream Brother Tab

-------------------------------------------------------------------------------
			     Dream Brother - Jeff Buckley
-------------------------------------------------------------------------------
Tabbed by: Matt Hoare
Email: matthoare@hotmail.com

(Basic intro and 1st verse shapes) 

e|------3-----1----------------------1----|
B|----4-----3-----3--1----1--0--1--3------|
G|--0-----0-----0------0---------------0--|
D|-(3)------------------------------------|
A|----------------------------------------|
E|-------(3)------------------------------|
                  
Verse1: 
There is a child sleeping near his twin
The pictures go wild in a rush of wind
The dark angel he is smuggling in
Watching over them with his black feather wings unfurled..
The love you lost with the skin so fair 
Is free with the wind in her butterscotch hair
Her green eyes blew goodbyes
With her head in her hands
And your kiss on the lips of another..
Dream brother with your tears scattered round the world.. 

e|--3---3---2---3----------1---3-----|
B|--3---4---1---3----------1---3-----|
G|--0---0---2---3--x2------0---0-----|
D|--0---0---0---1----------3---0-----|
A|--1---3------------------3---x-----|
E|-------------------------1---3-----|
[ Tab from: http://www.guitartabs.cc/tabs/j/jeff_buckley/dream_brother_tab.html ]
Bridge: 
Don't be like the one who made me so old
And don't be like the one who left behind his name
Cos he's waiting for you
Like I waited for mine
And nobody ever came..

e|--3---5---1---3-------7---5---1---3---|
B|--4---6---1---3-------8---6---1---3---|
G|--3---5---0---0-------9---5---0---0---|
D|--5---7---3---0-------10--7---3---0---|
A|--3---8---3---x-------x---8---3---x---|
E|----------1---3-------8-------1---3---|

e|--6---3---5---6----------1---3-----|
B|--6---4---7---8----------1---3-----|
G|--7---5---5---7--x2------0---0-----|
D|--8---5---7---8----------3---0-----|
A|--8---3---5---6----------3---x-----|
E|--6----------------------1---3-----|

Bridge: 
Don't be like the one who made me so old
And don't be like the one who left behind his name
Cos he's waiting for you
Like I waited for mine
And nobody ever came..

e|--3--3-------------(3)--3--3---1---3--|
B|--4--3--1---1-0-1-3-----3--4---1---3--|
G|--0--0----0-------------0--0---0---0--|
D|--0--0------------------0--0---3---0--|
A|--3--x------------------1--3---3---x--|
E|--x--3-------------(3)---------1---3--|

I feel afraid and I call your name
I love your voice and your dance insane
I hear your words and I know your pain
Your head in your hands and her kiss on the lips of another
Your eyes to the ground
and the world spinning round forever
Asleep in the sand with the ocean washing over...

===============================================================================
Comments