Jeff Buckley - Calling You Chords & Tabs

 

Calling You Chords & Tabs

Jeff Buckley Chords & Tabs

Version: 1 Type: Tab 0 ratings
1 star 2 stars 3 stars 4 stars 5 stars
comments

Calling You Tab

..::CAlling You::..
       Jeff Buckley
Tabbed by Simone (simone123@hotmail.it)

VERSE
  a desert road from vegas to nowere  some place better...

E -------0-------------0--------------0-------------0---------|
B ------------------------------------------------------------|
G ---1-2-----------1-2------------1-2-----------1-2-----------|
D ---------------0--------------------------------------------|
A -4------------------------------------------2---------------|
E ------------------------------2-----------------------------|

[ Tab from: http://www.guitartabs.cc/tabs/j/jeff_buckley/calling_you_tab.html ]
CHORUS
  I_________          am calling    you
E -------5----------4----------3----------2-----------------|
B ----------------5----------5----------3-------------------|
G -----7--------4----------4----------3---------------------|
D ---9------------------------------------------------------|
A -8----------5----------4----------------------------------|
E ----------------------------------2-----------------------|

  I_________          am calling    you
E -------5----------4----------3----------2-----------------|
B -----7----------5----------5----------3-------------------|
G ---6----------5----------4----------3---------------------|
D ----------------------------------------------------------|
A -6---------------------4----------------------------------|
E ------------4---------------------2-----------------------|


JEFF LIVES



                                                       arohanui lil kiwi
Comments