Jeff Beck - Where Were You Chords & Tabs

 

Where Were You Chords & Tabs

Jeff Beck Chords & Tabs

Version: 1 Type: Tab 0 ratings
1 star 2 stars 3 stars 4 stars 5 stars
comments

Where Were You Tab

Title: Where Were You
Artist: Jeff Beck
Tabbed by: danreg

Key:
~ - vibrato
h - hammer on
b - bend
/ - slide up
\ - slide down
() - ghost note
* - strike note once
[] - natural harmonics


This tab sounds perfect, it took a long time to do, so please rate it.
it's in standard tuning.


Intro / main riff -
e----------------------------------------------------------------|
B---14---17~~------------15--17--19--15~~-------12--14--15~~~----|
G----------------------------------------------------------------|
D----------------------------------------------------------------|
A----------------------------------------------------------------|
E----------------------------------------------------------------|


e-------------------------------|
B--*15/17\14/15\12/14\10/12~~---|
G-------------------------------|
D-------------------------------|
A-------------------------------|
E-------------------------------|

e----------------------------------------------------------------|
B---14---17~~------------15--17--19~~-17-15-------12h14--15~~~---|
G----------------------------------------------------------------|
D----------------------------------------------------------------|
A----------------------------------------------------------------|
E----------------------------------------------------------------|


e-------------------------------|
B--*15/17\14/15\12/14\10/12~~---|
G-------------------------------|
D-------------------------------|
A-------------------------------|
E-------------------------------|


e----------------------------------------------------------------|
B---14---17~~------------15--17--19--15~~-------12--14--15~~~----|
G----------------------------------------------------------------|
D----------------------------------------------------------------|
A----------------------------------------------------------------|
E----------------------------------------------------------------|


e-------------------------------|
B--*15/17\14/15\12/14\10/12~~---|
G-------------------------------|
D-------------------------------|
A-------------------------------|
E-------------------------------|


e----------------------------------------------------------------|
B---14---17~~------------15--17--19~~-17-15-------12h14--15~~~---|
G----------------------------------------------------------------|
D----------------------------------------------------------------|
A----------------------------------------------------------------|
E----------------------------------------------------------------|


e-------------------------------|
B--*15/17\14/15\12/14\10/12~~---|
G-------------------------------|
D-------------------------------|
A-------------------------------|
E-------------------------------|

bridge

e-------*19b(21)~~~~~~~\17\15\12--------------19b(21)~~~~~~~\17\15\12--|
B----------------------------------------------------------------------|
G----------------------------------------------------------------------|
D----------------------------------------------------------------------|
A----------------------------------------------------------------------|
E----------------------------------------------------------------------|

[ Tab from: http://www.guitartabs.cc/tabs/j/jeff_beck/where_were_you_tab.html ]
e----15--14--[12]--------15~~-------15--14--[12]--[17]-----------|
B-----------------[12]----------------------------------15~~-----|
G----------------------------------------------------------------|
D----------------------------------------------------------------|
A----------------------------------------------------------------|
E----------------------------------------------------------------|


e-----*19b(20)-(21)-(19)-(20)-(21)-(19)~~~----19\17\15\12~~------|
B----------------------------------------------------------------|
G----------------------------------------------------------------|
D----------------------------------------------------------------|
A----------------------------------------------------------------|
E----------------------------------------------------------------|


e---*15~~~~~\13/17~~~~~~--|
B-------------------------|
G-------------------------|
D-------------------------|
A-------------------------|
E-------------------------|


e---------------5h8~~~/15-----------------------5h8~~~/10---|
B-----------5h8----------12~~~-------------5h8--------------|
G-------5h7----------------------------5h7------------------|
D---5h7----------------------------5h7----------------------|
A-----------------------------------------------------------|
E-----------------------------------------------------------|


e----------------*7h10~~~/15---------------------*7h10~~~/12----|
B-----------7h10-----------12~~~-----------7h10-----------------|
G-------7h9----------------------------7h9----------------------|
D---7h9----------------------------7h9--------------------------|
A---------------------------------------------------------------|
E---------------------------------------------------------------|


E------19~~~~~~~~~~~~~~~~~~~~-|
B-----------------------------|
G-----------------------------|
D-----------------------------|
A-----------------------------|
E-----------------------------|

main riff

e----------------------------------------------------------------|
B---14---17~~------------15--17--19--15~~-------12--14--15~~~----|
G----------------------------------------------------------------|
D----------------------------------------------------------------|
A----------------------------------------------------------------|
E----------------------------------------------------------------|


e-------------------------------|
B--*15/17\14/15\12/14\10/12~~---|
G-------------------------------|
D-------------------------------|
A-------------------------------|
E-------------------------------|

e----------------------------------------------------------------|
B---14---17~~------------15--17--19~~-17-15-------12h14--15~~~---|
G----------------------------------------------------------------|
D----------------------------------------------------------------|
A----------------------------------------------------------------|
E----------------------------------------------------------------|


e-------------------------------|
B--*15/17\14/15\12/14\10/12~~---|
G-------------------------------|
D-------------------------------|
A-------------------------------|
E-------------------------------|

outro

e---------------------|
B-------7-------------|
G---7-9---7-----------|
D-----------9-7~~~~~--|
A---------------------|
E---------------------|


d_register2003@yahoo.co.uk
Comments