Jeff Beck - Nadia Chords & Tabs

 

Nadia Chords & Tabs

Jeff Beck Chords & Tabs

Version: 1 Type: Tab 0 ratings
1 star 2 stars 3 stars 4 stars 5 stars
comments

Nadia Tab

Artist:Jeff Beck
Title:Nadia
Tuning:Half Down Tuning

Here is the my first tab,and I'm sure this is 100% correct.
Enjoy !!

Intro #1 with Slide Bar
Vol.<
E----------------------------------------------------------------
B--5~~~5-10-8~~~8-13-10~~~10-14~~~~~~----------------------------
G----------------------------------------------------------------
D----------------------------------------------------------------
A----------------------------------------------------------------
E----------------------------------------------------------------

E----------------------------------------------------------------
B--14~~~15-14-17-(16)14(16)13~13~12-10~~~------------------------
G----------------------------------------------------------------
D----------------------------------------------------------------
A----------------------------------------------------------------
E----------------------------------------------------------------

Intro #2 with "NO" slide bar
 0:14            0:15                                   0:17    
E----------------------------------Arm u&r-----------------------
B-----Arm u+1---Arm d&r -1----0--u -1-0-u--+.5-0--------------
G-12--12^12~~~----14----14-14-14---14--14-14-14--14-14-12-11-12~11
D-------------------------------cho-------------------p--s-----p-   2
A----------------------------------------------------------------
E----------------------------------------------------------------

Verse#1
0:26                       0:27
E---Arm->-------------------d--------u&r-------------------------
B----+1-0-+1-0-------------- -1 ---+.5-0--- -.5 ---0---------
G-11-14-14-14-14-14^12^11~~-11-11--11-11-11----------------------
D------------------p--p---------------------12^12-----12---------
A----------------------------------------------------------------
E----------------------------------------------------------------

E-Arm->-----------------------Arm down---------------------------
B-------.5------+.5-0------------------------------------------
G----11-11-------11--11-11------------\--------------------------
D---------------------------------------------------------------- 2
A----------------------------------------------------------------
E----------------------------------------------------------------

E----Arm u--------d&r-------------------------------------------d
B--------+1-------- -1----0--- -1 0---+.5-0------------------
G-12--12-12~~---14--14-14-14^14-14-14-14-14-14-14-14-12-11-12-11\
D---------------------------cho----------------------p--s----p--- 2
A----------------------------------------------------------------
E----------------------------------------------------------------

Chorus
0:49
E---------------------with Arm&Cho-------------------------------
B-7-10-14--14--14-15---1hu~> -.5-+1-0----+1-0--------- -1 -2 0
G--s--s----------------16----16--16-16-16-16-16-16-16-16-16-16-16
D-----------------------------------------------------d----------
A----------------------------------------------------------------
E----------------------------------------------------------------

E---------------------with Arm&Cho-------------------------------
B-7-10-14--14--14-15---1hu~> -.5-+1-0----+1-0--------- -1 -2 -1
G--s--s----------------16----16--16-16-16-16-16-16-16-16-16-16-16
D-----------------------------------------------------d----------
A----------------------------------------------------------------
E----------------------------------------------------------------

1:01
E---Arm->-------------------d--------u&r-------------------------
B----+1-0-+1-0-------------- -1 ---+.5-0--- -.5 ---0---------
G-11-14-14-14-14-14^12^11~~-11-11--11-11-11----------------------
D------------------p--p---------------------12^12-----12---------
A----------------------------------------------------------------
E----------------------------------------------------------------

E-----------------------Arm d--------u&r-------------------------
B----.5--------+.5-0------------ -1---.5-+0-------------------
G-11-11---------11--11--11---\--11-11-11-11-11--- -.5--0--------
D----------------------------------------------12^12---12--\-----
A----------------------------------------------------------------
E-------------------------------------------------Arm d----------

E-Arm u&r-------------Arm d--d&r--------------------u&r---------d
B---.5------+.5-0--------- -1-0---------------------+.5---0--
G-11-11-------11-11-11----\--11-11------------------11--11----11-
D----------------------------------11--------11-12--------------\
A----------------------------------------------------------------
E----------------------------------------------------------------

E---------------Arm u&r------------------------------------------
B-----------------+.5-0-----------------------------------------
G-11-11--11--11-11-11-11--------------0-------------------------
D------------------------12-----------12-------------------------
A------------------------------Arm d&r---------------------------
E----------------------------------------------------------------

1:15
Vol.<         <  <  <    Tone<                      <
E-Arm u&r-------------------------------------hu---hc------------
B-+1--0-----10-14-15--12-12-12--12-----------14-14-14-------14--
G--9--9---11-------------d-cho------------------d----------d-----
D-------h--------------------------------------------------------
A----------------------------------------------------------------
E----------------------------------------------------------------

                                        hu    Tone<
E----------------------------------------------------------------
B-Arm d -1 --+1.5-0--------- -.5-------------d--hc--------------
G-14-15-15-14-14--14-12-12-12-12-14-18--18--18-18--18------------
D-------------------------------h--s-----------------------------
A----------------------------------------------------------------
E----------------------------------------------------------------

1:39
E---------------------with Arm&Cho-------------------------------
B-7-10-14--14--14-15---1hu~> -.5-+1-0----+1-0--------- -1 -2 0
G--s--s----------------16----16--16-16-16-16-16-16-16-16-16-16-16
D-----------------------------------------------------d----------
A----------------------------------------------------------------
E----------------------------------------------------------------

             1:35
E-------------------------+.5-0---- -.50 -.5----0-+.5---0-d--
B-7-10-14--14--15-15-15-15-15-15--15-15-15-15-15--15-15-15-15-15-
G--s--s---------cho-2c-----2u-2u--------------------2c------2u---
D----------------------------------------------------------------
A----------------------------------------------------------------
E----------------------------------------------------------------
[ Tab from: http://www.guitartabs.cc/tabs/j/jeff_beck/nadia_tab.html ]
E-Arm d-- -.5----------------------------------------------------
B----13---13-----------------------------------------------------
G----------------------------------------------------------------
D----------------------------------------------------------------
A----------------------------------------------------------------
E----------------------------------------------------------------

E---Arm->-------------------d--------u&r-------------------------
B----+1-0-+1-0-------------- -1 ---+.5-0--- -.5 ---0---------
G-11-14-14-14-14-14^12^11~~-11-11--11-11-11----------------------
D------------------p--p---------------------12^12-----12---------
A----------------------------------------------------------------
E----------------------------------------------------------------

E-Arm->-------------------Arm down---------u&r-------------------
B-------.5------+.5-0--------------- -1---+.5-0---------------
G----11-11-------11--11-11--------\-11-11-11-11-11--- -.5---0---
D--------------------------------------------------12-12----12--- 
A----------------------------------------------------------------
E----------------------------------------------------------------

E--Arm d&r -1-0----------u&r---------Arm d----------------------
B-15----12-12-12---------+.5-0-------------------hc-------------
G----------------------11-11-11-11-11-----------11-11-11~--------
D--------------------------------------------12------------------
A----------------------------------------------------------------
E----------------------------------------------------------------

E----------------------------------------------------------------
B------------------+.5-0-- -.5-----------------0---------------
G-11-11-11--11~~-11-11-11----------------------------------------
D---------------------------12------------------12---------------
A----------------------------Arm d&r-----------------------------
E----------------------------------------------------------------

               hu
E---------------Arm u-+.5--Arm d---------------------------------
B-14-14-14-----14-14--14-----14----------------------------------
G---hc-----------------------------------------------------------
D---------------------------------------------------------------- 2
A----------------------------------------------------------------
E----------------------------------------------------------------

Vol.<
E----------- -.50---Arm d---------------------------------------
B--15~~~~~15~15-15---15----\-------------------------------------
G----------------------------------------------------------------
D---------------------------------------------------------------- 2
A----------------------------------------------------------------
E----------------------------------------------------------------

2:17 with Slide Bar
E----------------------------------------------------------------
B--5~~~5-10-8~~~8-13-10~~~10-14~~~~~~----------------------------
G----------------------------------------------------------------
D----------------------------------------------------------------
A----------------------------------------------------------------
E----------------------------------------------------------------

E----------------------------------------------------------------
B--14~~~15-14-17-(16)14(16)13~13~12-10~~~------------------------
G----------------------------------------------------------------
D----------------------------------------------------------------
A----------------------------------------------------------------
E----------------------------------------------------------------

2:29
E---Arm->-------------------d--------u&r-------------------------
B----+1-0-+1-0-------------- -1 ---+.5-0--- -.5 ---0---------
G-11-14-14-14-14-14^12^11~~-11-11--11-11-11----------------------
D------------------p--p---------------------12^12-----12---------
A----------------------------------------------------------------
E----------------------------------------------------------------

E-Arm->-----------------------Arm down---------------------------
B-------.5------+.5-0------------------------------------------
G----11-11-------11--11-11------------\--------------------------
D---------------------------------------------------------------- 2
A----------------------------------------------------------------
E----------------------------------------------------------------

E----Arm u--------d&r-------------------------------------------d
B--------+1-------- -1----0--- -1 0---+.5-0------------------
G-12--12-12~~---14--14-14-14^14-14-14-14-14-14-14-14-12-11-12-11\
D---------------------------cho----------------------p--s----p--- 2
A----------------------------------------------------------------
E----------------------------------------------------------------

2:52
E---Arm->-------------------d--------u&r-------------------------
B----+1-0-+1-0-------------- -1 ---+.5-0--- -.5 ---0---------
G-11-14-14-14-14-14^12^11~~-11-11--11-11-11----------------------
D------------------p--p---------------------12^12-----12---------
A----------------------------------------------------------------
E----------------------------------------------------------------

E-Arm->-------------------Arm down---------u&r-------------------
B-------.5------+.5-0--------------- -1---+.5-0---------------
G----11-11-------11--11-11--------\-11-11-11-11-11--- -.5---0---
D--------------------------------------------------12-12----12--- 
A----------------------------------------------------------------
E----------------------------------------------------------------

                                         Tone<          Arm u&r
E--Arm u&r -1-0------+.5-0--Arm d------------------hu-----+.5--
B-15~~~12--12-12----------------------------11---------11-11-11--
G-------------------11-11-11-11-11\------12--------------d-------
D--------------------------------------------hc------------------
A----------------------------------------------------------------
E----------------------------------------------------------------

E-Arm u&r-------Arm D-------------+.5-0-------------------------
B-0-+.5-0------------------------------------------------------
G-11-11--11-11---\------11-11--11--11-11-------------------------
D----------------------------------------12-11~~~~12-------------
A------------------------------------------p---------------------
E----------------------------------------------------------------

E---------------hu--Arm u-+.5--Arm d-----------------------------
B-14-14-14~~~---14-14-----14-14---\------------------------------
G---hc------------d----------------------------------------------
D---------------------------------------------------------------- 2
A----------------------------------------------------------------
E----------------------------------------------------------------

Vol.<              Arm u      d
E--21-21--21~~-----21-----21--21---------------------------------
B---hc-------------------+.5-----\-------------------------------
G----------------------------------------------------------------
D---------------------------------------------------------------- 4
A----------------------------------------------------------------
E----------------------------------------------------------------
Comments