Jeff Beck - Led Boots Chords & Tabs

 

Led Boots Chords & Tabs

Jeff Beck Chords & Tabs

Version: 1 Type: Bass Tab 0 ratings
1 star 2 stars 3 stars 4 stars 5 stars
comments

Led Boots Bass Tab

Song: Led Boots
Artist: Jeff Beck
Tabbed by Daniel Martin

Verse
G-5-4-------------------5-4--------------
D------5-3---3-3-3-5-------5-3--3-5--
A------------------------------------------
E------------------------------------------
[ Tab from: http://www.guitartabs.cc/tabs/j/jeff_beck/led_boots_btab.html ]
Chorus
G----5----3-2-0-5---3---2--0-------------
D-3---3--------------------------3-0------
A---------------------------------------1---
E--------------------------------------------

    Listen to the song get the rythems, it a fairly easy but fun song.
Comments