Jed Madela - Past Chords & Tabs

 

Past Chords & Tabs

Jed Madela Chords & Tabs

Version: 1 Type: Tab

Past Tab

   
Transcribe by: Jomar Villanueva
	       Batangas State University
               engineering student
	       
              

Tabbed       : December 09, 2005
	     

Note         : Di ako sure dito pero i think its worth it.. madali lang nman xa.. 
	       you just have 2 listen lang s song.. its my first time 2 submit a tab.
               psenxa na pohh... enjoy!! mwah!!!
	                  



INTRO:

E-----3p2-3p2-----3p2-3p2--------2------------0----|
B-3-----------3----------------3----------------3--|
G---0-------------------------------2-4-5-4-5------|
D---------------------------0----------------------|
A---------------3---------2------------------------|
E-3------------------------------------------------|

E-----3-2-3p2-----3-2-3p2--------2--7/9/10-10------|
B-3-----------3----------------3----7/7/8--8--10---|
G---0----------------------------------------------|
D---------------------------0----------------------|
A---------------3---------2------------------------|
E-3------------------------------------------------|

First Verse:
G                C           D
I was wrong when i hurt you
                     G          Em
But did you have to hurt me too
                 C                   D  
Did you think revenge will make it better?
G               C            D
I don't care about the past
                  G           Em
I just want our love to last
                   C              D
There's a way to bring us back together


Chorus:
           C       D
I must forgive you
            G        Em
You must forgive me too
             C                 D
If we wanna try to put things back
               G 
the way they used to be
                    C              D
'cause there's no sense in going over and over
           G         Em
The same things as before
     C                   D        G
So let's not bring the past up anymore



E-----3p2-3p2-----3p2-3p2--------2--7/9/10-10------|
B-3-----------3----------------3----7/7/8--8-------|
G---0----------------------------------------------|
D---------------------------0----------------------|
A---------------3---------2------------------------|
E-3------------------------------------------------|


[ Tab from: http://www.guitartabs.cc/tabs/j/jed_madela/past_tab.html ]
G                C         D
Out of all the good we had
                     G          Em
You only keep track of the bad
                    C            D
Though you knew i never really loved her
G               C           D
Didn't anyone tell you yet
                   G          Em
That to forgive is to forget
                C                  D
How can you be mad if you don't remember


Chorus:
           C       D
I must forgive you
            G        Em
You must forgive me too
             C                 D
If we wanna try to put things back
               G 
the way they used to be
                    C              D
'cause there's no sense in going over and over
           G         Em
The same things as before
     C                   D        G
So let's not bring the past up anymore

ad lib:

E-----3p2-3p2-----3p2-3/5-5-----5-----5/7----------------------------------|
B-3-----------3---------------3-------3/5-7p5-7/9--9p7-10p9-12p10----------|
G---0-----------------------4------4------------------------------9/11-11--|
D--------------------------------------------------------------------------|
A---------------3----------------------------------------------------------|
E-3------------------------------------------------------------------------|


E------------------5-7-7/9b--7------------------------------------10/12-12-10-|
B--------------4h5--------------5/7p5--9/10-10\9----9/10----------------------|
G-8-8-5----5-7-----------------------------------11-----------9-12------------|
D-------7------------------------------------------------9h10-----------------|
A-----------------------------------------------------------------------------|
E-----------------------------------------------------------------------------|

E-10-8-7----7---------|
B--------10---10-8-8--|
G---------------------|
D---------------------|
A---------------------|
E---------------------|

C            D
I must forgive you
     G                   Em   C
And you must forgive me too
                D
It's the only thing that's left
           G           Em   C 
that we haven't try to do
                 D
One thing that i'm sure will work
           G            Em 
That we haven't tried before
C                     D          G
Let's not bring the past back anymore



E-----3-2-3p2-----3-2-3p2-------------0----|
B-3-----------3-------------------------3--|
G---0-----------------------2-4-5-4-5------|
D------------------------------------------|
A---------------3---------2----------------|
E-3----------------------------------------|

E-----3-2-3p2-----3-2-3p2-------8--7--10-----10--|
B-3-----------3-----------------8-----10-12--12--|
G---0---------------------------9-----11-----12--|
D-------------------------------10----12---------|
A---------------3---------2-----10----12---------|
E-3-----------------------------8-----10---------|

Yun na poh.... salmat sa lahat... enjoy nyo lang.. 
Hi nga pla ky Glaisa.. salmat s insprasyon!!.. love you poh.... Sobrah!!