Jebediah - Star Machine Chords & Tabs

 

Star Machine Chords & Tabs

Jebediah Chords & Tabs

Version: 1 Type: Tab 0 ratings
1 star 2 stars 3 stars 4 stars 5 stars
comments

Star Machine Tab

   
          Tabbed by Adam Finn   (hawka6@hotmail.com)
          Band:Jebediah
          Song:Star Machine (Of someday Shambles)
          
          This song is played with two guitars. Lead And Rhythm
          
          
          Intro Rhythm
          
          E|------------------------------------------------------------
          B|------------------------------------------------------------
          G|-6-------6-------6------------------------------------------
          D|-6---2---6---2---6---2--------------------------------------
          A|-4---2---4---2---4---2--------------------------------------
          E|-----0-------0-------0--------------------------------------
          
          Lead
          
          E|------------------------------------------------------------
          B|------------------------------------------------------------
          G|-----7-----7-----9-----7-----7------------------------------ x2
          D|-7-7---7-7---7-7---7-7---7-7---7p5--------------------------
          A|------------------------------------------------------------
          E|------------------------------------------------------------
          
          E|------------------------------5-----------------------------
          B|----------------------------7-------------------------------
          G|-----7-----7---9-------7------------------------------------
          D|-7-7---7-7---7----7--7---7----------------------------------
          A|------------------------------------------------------------
          E|------------------------------------------------------------
          
          Verse Rhythm
          
          E|------------------------------------------------------------
          B|------------------------------------------------------------
          G|------------------------------------------------------------
          D|-2-2-x-x-4-4-x-x-7-7-x-x-4-4-x-x-9-9-x-x-4-4-7-7-7-7-7-7-7-7
          A|-2-2-x-x-4-4-x-x-7-7-x-x-4-4-x-x-9-9-x-x-4-4-7-7-7-7-7-7-7-7
          E|-0-0-x-x-2-2-x-x-5-5-x-x-2-2-x-x-9-9-x-x-2-2-5-5-5-5-5-5-5-5
          
          Lead
          
          E|-7--7--7--5--7--12--7--9--7-------7-------------------------
          B|-----------------------------7h9-----7----------------------
          G|------------------------------------------------------------
          D|------------------------------------------------------------
          A|------------------------------------------------------------
          E|------------------------------------------------------------
          
          Pre Chours  Rhythm & Lead
           
          E|------------------------------------------------------------
          B|------------------------------------------------------------
          G|---------------4-4-4-4---5-5-5-5----------------------------
          D|-2-2-2-2-2-2---4-4-4-4---5-5-5-5---5-5-5-5-5-5--------------
          A|-2-2-2-2-2-2---2-2-2-2---3-3-3-3---5-5-5-5-5-5--------------
          E|-0-0-0-0-0-0-----------------------3-3-3-3-3-3--------------
          
          Chours Rhythm & Lead
          
          E|------------------------------------------------------------
          B|------------------------------------------------------------
          G|-9-9-9-9-9-9-9-9---7-7-7------------------------------------
          D|-9-9-9-9-9-9-9-9---7-7-7---7-7-7-7-7-7-7-7----4-4-4---7-7-7-
          A|-7-7-7-7-7-7-7-7---5-5-5---7-7-7-7-7-7-7-7----4-4-4---7-7-7-
          E|---------------------------5-5-5-5-5-5-5-5----2-2-2---5-5-5-
          
          Bridge Rhythm 
          
          E|----------------------|------------------------------------
          B|----------------------|------------------------------------
          G|----------------------|------------------------------------
          D|-2---Hold-----4---7---|-4-4-4---7-7-7---4-4-4---7-7-7------
          A|-2------------4---7---|-4-4-4---7-7-7---4-4-4---7-7-7------
          E|-0------------2---5---|-2-2-2---5-5-5---2-2-2---5-5-5------
          
          E|-----------------------------------------------------------
          B|-----------------------------------------------------------
          G|-------------------------7b-------9b-----11b---------------
          D|-----------------------------------------------------------
          A|-----------------------------------------------------------
          E|-----------------------------------------------------------
          
          Outro  Rhythm
          
          E|-----------------------------------------------------------
          B|-----------------------------------------------------------
          G|-Play lots geting louder-----------------------------------
          D|-7------------------------------------4-----------2--------
          A|-7------------------------------------4-----------2--------
          E|-5------------------------------------2-----------0--------
          
          Lead
          
          E|
          B|-/7--5--0--2------------/7--5--0--2-------/7--5--0--2------
          G|-----------------------------------------------------------
          D|-----------------------------------------------------------
          A|-----------------------------------------------------------
          E|-----------------------------------------------------------
[ Tab from: http://www.guitartabs.cc/tabs/j/jebediah/star_machine_tab.html ]
Comments