Jebediah - Star Machine Chords & Tabs

 

Star Machine Chords & Tabs

Jebediah Chords & Tabs

Version: 1 Type: Bass Tab 0 ratings
1 star 2 stars 3 stars 4 stars 5 stars
comments

Star Machine Bass Tab

jebediah-star machine
Bassist-vanessa thornton
Album- of someday shambles(1999)
tabbed by- adam moen

a graet song

intro-
G|---------------------------|
D|---------------------------|
A|---------------------------|
E|-5---2---5---0--5---2--222-|

verse-
G|-------------------------------------------------------------|
D|-------------------------------------------------------------|
A|-----------------0-0-0-0-------------------------------4-5-0-|
E|-0-0-0-0-2-2-2-2---------2-2-2-2-0-0-0-0-2-2-2-2-5-5-5-------|

pre chorus-
G|----------------------------------------------------------|
D|----------------------------------------------------------|
A|-------------------------------------------------00000000-|
E|-0-------2-------5-------0-------2------555555555---------|
[ Tab from: http://www.guitartabs.cc/tabs/j/jebediah/star_machine_btab.html ]
chorus-
G|----------------------------------------------------------------|
D|----------------------------------------------------------------|
A|-4-4-4-4-4-4-4-4-4-4-4-4-2-2-2-2-0-0-0-0-0-0-0-00---------------|
E|--------------------------------------------------2-2-2-5-5-5-5-|

afetr 2nd chorus
G|-------------------------------------------------------------------------|
D|-------------------------------------------------------------------------|
A|-------------------------------------------------------------------------|
E|-0-2-5-2--0-2-5-2--0-2-5-2--0-2-5-2--0-2-5-2-0-2-555-222-5555-222-5555-1-|

piano solo- tacet.

outro-bass comes in with drums
G|----------------------------------------------|
D|----------------------------------------------|
A|-0-555555555555555555555555555555555----------|
E|-------------------------------------0-5----0-|

thanx-- a fantasic song, album and band   go the JEB!





Comments