Jebediah - Spoil The Show Chords & Tabs

 

Spoil The Show Chords & Tabs

Jebediah Chords & Tabs

Version: 2 Type: Tab 0 ratings
1 star 2 stars 3 stars 4 stars 5 stars
comments

Spoil The Show Tab

   
Spoil The Show
Tabbed by Grant Joyce 
sjoycegw@alpha1.curtin.edu.au 

Here's the slighly updated version, with the solo...which was 
a total bastard to figure out. 

B - x24442      G#5 - 466xxx    F#5 - 244xxx    E5 - 022xxx 

Intro (Lead) 

|---------------------|--------------------------------| 
|---------------------|-------------------------------| 
|---------------------|-------------------------------| 
|-0-2--0--2-0-2--2/7--|-0-2--0--2-0-2--2/7\2--0--2----| 
|-0-2--0--2-0-2--2/7--|-0-2--0--2-0-2--2/7\2--0--2----| 
|---------------------|-------------------------------| 

    Repeat that twice, then when Kevin's guitar comes in, 
    just play this again but swap the bars around. 

Intro (Rythm) 

  Guitar just plays a B through the intro. 
  

Verse (Rythm) 

  |-B--|-B--|-G#5--|-G#5--|-B--|-B--|-F#5--|-F#5--|-E5--|-E5--| x 2 
  

Chorus (Rythm) 

  |-B--|-G#5--|-F#5--|-E5--| x 4 
  

After 1st Chorus (Lead) 

|-7----------------| 
|---7--------------| 
|-----6h8p6-6h8----| 
|---------------9--| 
|------------------| 
|------------------| 

After "...the sho-ow" (Lead & Rythm) 

  Chords for this part only : 
  E5 - x799xx   B5 - 799xxx             A5 - 577xxx             C#5 - x466xx 
[ Tab from: http://www.guitartabs.cc/tabs/j/jebediah/spoil_the_show_tab_ver_2.html ]
  |-C#5--E5--B5--|-C#5--E5--B5--|-C#5--E5--B5--|-A5--| x 2 
  

Solo (Rythm) 

  Just play  C#5 through the solo. 
  

Solo (Lead)  (Simplified somewhat !!) 

|-----------------|-----------------------|-------------------| 
|-----------------|-----------------------|-------------------| 
|-----------------|-----------------------|-------------------| 
|-----------------|-----------------------|-------------------| 
|-11-11-11h12-11--|-12-14-12-11-12-11-----|-11-11-11h12-11----| 
|-----------------|-------------------14--|-------------------| 

|-----------------------|--------------|----------------------| 
|-----------------------|--------------|----------12----------| 
|-------------------11--|-13-13h14p13--|-13-13-14-------------| 
|-------------11-14-----|--------------|----------------------| 
|-12-14-12-14-----------|--------------|----------------------| 
|-----------------------|--------------|----------------------| 

|-12-----------------|-----------------|-12-12-12-12-12-12----| 
|----12--------------|-------12--------|-12-12-12-12-12-12----| 
|-------14-13-11-----|-13-14----14-13--|----------------------| 
|----------------14--|-----------------|----------------------| 
|--------------------|-----------------|----------------------| 
|--------------------|-----------------|----------------------| 
Comments