Jean Wyclef - Gone Til November Chords & Tabs

 

Gone Til November Chords & Tabs

Jean Wyclef Chords & Tabs

Version: 1 Type: Tab 1 rating
1 star 2 stars 3 stars 4 stars 5 stars
comments

Gone Til November Tab

Title:  Gone Till November
Artist: Wyclef Jean
Album:  The Carnival

transcribed by Rafael Aspiazu  raspiazu@t-online.de

I am not a fan of Wyclef Jean, but I think this song is quite easy and I was
bored, so I transcribed it.

I really donno if this is the intro, but it sounds as it belongs to
this song.

e-------------------------------------------------------------
B-----------2------------2--------------------2--0------------
G--1-1-2-4----4-2-1-2-4-----4-2-1-2-1---------------2-1-2-1---
D--------------------------------------2---------------------2
A-------------------------------------------------------------
E-------------------------------------------------------------
[ Tab from: http://www.guitartabs.cc/tabs/j/jean_wyclef/gone_til_november_tab.html ]
e---------0----------------0-------------0--------------------
B-0-0-2-3----3-2--0--2--3----3-2-0-2-3------3--2--------------
G-------------------------------------------------4--2-1-2-1--
D------------------------------------------------------------2
A-------------------------------------------------------------
E-------------------------------------------------------------

e-------------------------------------------------------------
B--2---0------------------------------------------------------
G---------2--1--2--1------------------------------------------
D----------------------2--------------------------------------
A-------------------------------------------------------------
E-------------------------------------------------------------

HAVE FUN!
Comments