Jean Wyclef - 911 Chords & Tabs

 

911 Chords & Tabs

Jean Wyclef Chords & Tabs

Version: 6 Type: Tab 0 ratings
1 star 2 stars 3 stars 4 stars 5 stars
comments

911 Tab

   
Nine-1-One BY Wyclef Jean

Transcribed by Fredrik Neroth (fredde1982@hehe.com)

^bend
/slide up
H=HAMMERON
\SLIDE DOWN

This is the main part, you just repeat it over and over again.

  Em           G	     Bm        Am           G
e----------------------------------2--------------------------------------- 
b----7/12--10--8--7--8--5----------3------7/12--10--8--7--8--5-------------  
g--------------------------------4----------------------------------------- 
d------------------------------4-------------------------------------------  
a----------------------------2---------0----------------------------------- 
e-0------------------------------------------------------------------------  
   Bm    /   Bm 
e-----------------------------| 
b---------3-------------------| 
g-------4----------7----------| 
d-----4----------9------------|  
a---2----------9--------------| 
e------------7----------------|
[ Tab from: http://www.guitartabs.cc/tabs/j/jean_wyclef/911_tab_ver_6.html ]
The chords go something like this
Em 	     G                    Bm
    Some one please call Nine One One   
Am            G                Bm             Bm               Em
    Tell them I just been shot down   and the bullets is in my heart

Bas Part
  
g-------------------------------------------------------------------------- 
d--------------------------------------------------------------------------  
a-------0-0-----2-----2-2---0-----0-0-----2----2-0-----2-0----------------- 
e-0------------------------------------------------3-2-----3-2---0---------  


g-----------------------------------------------------| From the
d-----------------------------------------------------| begining 
a-------0-0-----2-----2-2---0-----0-0-----------2--2--| again
e-----------------------------------------3--3--------|  

All the other tabs where so bad that I just had to submit my own. It's maybe
not absolutely correct but it's quite good I think.
Comments