Jcor - Confusion Chords & Tabs

 

Confusion Chords & Tabs

Jcor Chords & Tabs

Version: 1 Type: Tab 0 ratings
1 star 2 stars 3 stars 4 stars 5 stars
comments

Confusion Tab

JCOR - Confusion 

Hello my name is JD Astbury.
This is my first tab so go easy on me. 
I’m the lead guitarist for the band JCOR.
I hope that you like this song.
It sounds hectic if played really fast in the intro and pre chorus.
Enjoy.
(If you have any comments or queries plz email me at 05joha@woodridge.co.za)
JD Astbury

Intro
			                            Repeat x4
E------------------------------------------------------------------
B------------------------------------------------------------------
G------------------------------------------------------------------
D-----2-2-2---3-2-----2-2-2---3-2----------------------------------
A-0-0-------0-----3-3-------3---------5-5-5---5---2-2-3-3-3---3-2-0
E---------------------------------3-3-------3---3-----------0------
[ Tab from: http://www.guitartabs.cc/tabs/j/jcor/confusion_tab.html ]
Pre chorus                                        
                                                   Repeat x4
E------------------------------------------------------------------
B------------------------------------------------------------------
G------------------------------------------------------------------
D-2-2-2-2-2--------------------------------------------------------
A-2-2-2-2-2-5-5-2-3-3-3--------------------------------------------
E-----------3-3-----1-1--------------------------------------------

Chorus
                                                   Repeat x4
E------------------------------------------------------------------
B------------------------------------------------------------------
G------------------------------------------------------------------
D-------------5-5-5-7-7-7------------------------------------------
A-7-7-7-5-5-5-3-3-3-5-5-5------------------------------------------
E-5-5-5-3-3-3------------------------------------------------------


Play the intro.
Then the Pre chorus.
Then the intro again.
Then the chorus.
Then the intro.
Then the chorus.





Comments