Jbo - Ich Glaube Du Liebst Mich Nicht Mehr Chords & Tabs

 

Ich Glaube Du Liebst Mich Nicht Mehr Chords & Tabs

Jbo Chords & Tabs

Version: 1 Type: Tab 0 ratings
1 star 2 stars 3 stars 4 stars 5 stars
comments

Ich Glaube Du Liebst Mich Nicht Mehr Tab

JBO - Ich glaube du liebst mich nicht mehr

INTRO

|--2--2h3-0-|------------|--2-0---|--2--2h3-0-|--3-2-0---|-------------|
|--3--3---3-|------3-0---|--3-0-3-|--3--3---3-|--3-3-2-3-|------3-0----|
|--2--2---2-|--2/4-----2-|------2-|--2--2---2-|--------2-|--2/4-----2--|
|--0--0---2-|------------|--------|--0--0---2-|----------|------------4|
|--x--x---0-|------------|--------|--x--x---0-|----------|-------------|
|--x--x---0-|------------|--------|--x--x---0-|----------|-------------|

Strophe:

|---------2-------|-----------------|-----------------|-----------------|
|-----3-------3---|---------3-------|---------1-------|---------3-------|
|---2---2---2---2-|-----2-------2---|-----0-------0---|-----0-------0---|
|-0---------------|---2---2---2---2-|---2---2---2---2-|---2---2---2---2-|
|-----------------|-4---------------|-0---------------|-----------------|
|-----------------|-----------------|-----------------|-0---------------|
wir sind...

|-----------------|-----------------|-----------------|-----------2-0---|
|---------3-------|---------3-------|---------3-------|---------3-3-0-3-|
|-----0-------0---|-----2-------2---|-----0-------0---|-----2---------2-|
|---2---2---2---2-|---2---2---2---2-|---2---2---2---2-|---2---2---------|
|-----------------|-0---------------|-----------------|-0---------------|
|-0---------------|-----------------|-0---------------|-----------------|
du liebtest mich..
[ Tab from: http://www.guitartabs.cc/tabs/j/jbo/ich_glaube_du_liebst_mich_nicht_mehr_tab.html ]
|---------2-------|-----------------|-----------------|-----------------|
|-----3-------3---|---------3-------|---------1-------|---------3-------|
|---2---2---2---2-|-----2-------2---|-----0-------0---|-----0-------0---|
|-0---------------|---2---2---2---2-|---2---2---2---2-|---2---2---2---2-|
|-----------------|-4---------------|-0---------------|-----------------|
|-----------------|-----------------|-----------------|-0---------------|
das mein herz...

|-----------------|-----------------|-----------------|-----------------|
|---------3-------|---------3-------|---------3-------|---------3-------|
|-----0-------0---|-----2-------2---|-----0-------0---|-----2-----------|
|---2---2---2---2-|---2---2---2---2-|---2---2---2---2-|---2---2---2-----|
|-----------------|-0---------------|-----------------|-0-----------0-2-|
|-0---------------|-----------------|-0---------------|-----------------|
das gab mir schon...

|-----------------|-----------------|---------2-------|-----------------|
|---------1-------|---------3-------|-----3-------3---|---------3-------|
|-----0-------0---|-----0-------0---|---2---2---2---2-|-----2-------2---|
|---2---2---2---2-|---0---0---0---0-|-0---------------|---2---2---2---2-|
|-3---------------|-----------------|-----------------|-0---------------|
|-----------------|-3---------------|-----------------|-----------------|
hast mir die bremsschläuche...

|-----------------|-----------------|
|---------3-------|---------3-------|
|-----0-------0---|-----0-------0---|
|---2---2---2---2-|---2---2---2---2-|
|-----------------|-----------------|
|-0---------------|-0---------------|
ich bin ´mir nicht so ganz sicher...

Dann kommt wieder das intro. das wiederholt sich dann bis zum schluss immer wieder.

viel spass beim spielen

PS: is meine erste tabulatur die ich schreibe. habe also nicht unbedingt auf rhytmik geachtet.
    hört euch halt das stück dazu an. bei fragen einfach mailen webmaster(at)swingband-saalfeld.de

tabbed by sani

Comments