Jbo - Alabatsch Chords & Tabs

 

Alabatsch Chords & Tabs

Jbo Chords & Tabs

Version: 1 Type: Tab 0 ratings
1 star 2 stars 3 stars 4 stars 5 stars
comments

Alabatsch Tab

   
Interpret : J.B.O.
Titel : Älabätsch
Autor : AWR

Man braucht für das Gitarrenspiel 2 Gitarren :
- 1x Leadgitarre     = Git1
- 1x Rhythmusgitarre = Git2 

__::Intro
Git1
e----------------------------|----------------------------|
H----------------------------|-3-3-0~-3-3-0~-3-3-0-5-3-0~~|
G----------------------------|----------------------------|
D-5-5----5-5----5-5---1-3----|----------------------------|
A-5-5-1--5-5-1--5-5-1-0-5-1--|----------------------------|
E-3-3-0--3-3-0--3-3-0---5-0--|----------------------------|
Git2
e----------------------------|----------------------------|
H----------------------------|----------------------------|
G----------------------------|----------------------------|
D-5-5----5-5----5-5---1-3----|-5-5----5-5----5-5---1-3----|
A-5-5-1--5-5-1--5-5-1-0-5-1--|-5-5-1--5-5-1--5-5-1-0-5-1--|
E-3-3-0--3-3-0--3-3-0---5-0--|-3-3-0--3-3-0--3-3-0---5-0--|


__::Verse 1
Git2
e----------------------------|----------------------------|
H----------------------------|----------------------------|
G----------------------------|----------------------------|
D--------------------5~5-----|--------------------5~5-----|
A-1~1----------------5~5-----|-1~1----------------5~5-----|
E-0~0----------------3~3-----|-0~0----------------3~3-----|
  U D                U D       U D                U D 

e----------------------------|------------------------------|
H----------------------------|------------------------------|
G----------------------------|----------------------777-----|
D--------------------5~5-----|-7~7--------9~999-----777-----|
A-1~1----------------5~5-----|-7~7--------9~999-----555-----|
E-0~0----------------3~3-----|-5~5--------7~777----------000|
  U D                U D       U D        U D       


_::Refain
Git1
e----------------------------|----------------------------|
H----------------------------|-3-3-0~-3-3-0~-3-3-0-5-3-0~~|
G----------------------------|----------------------------|
D-5-5----5-5----5-5---1-3----|----------------------------|
A-5-5-1--5-5-1--5-5-1-0-5-1--|----------------------------|
E-3-3-0--3-3-0--3-3-0---5-0--|----------------------------|
Git2
e----------------------------|----------------------------|
H----------------------------|----------------------------|
G----------------------------|----------------------------|
D-5-5----5-5----5-5---1-3----|-5-5----5-5----5-5---1-3----|
A-5-5-1--5-5-1--5-5-1-0-5-1--|-5-5-1--5-5-1--5-5-1-0-5-1--|
E-3-3-0--3-3-0--3-3-0---5-0--|-3-3-0--3-3-0--3-3-0---5-0--|


_::Bridge
Git2 & Git1
e----------------------------|
H----------------------------|
G----7-----------------------|
D----7-x7-----7--------------|
A----5-----0--7-x7-----------|
E-0-----------5--------------|

                  
_::Verse 2
Git2
e----------------------------|------------------------------|
H----------------------------|------------------------------|
G----------------------------|----------------------777-----|
D--------------------5~5-----|-7~7--------9~999-----777-----|
A-1~1----------------5~5-----|-7~7--------9~999-----555-----|
E-0~0----------------3~3-----|-5~5--------7~777----------000|
  U D                U D       U D        U D       



__::Refain
Git1 & Git2
Git2:
e----------------------------|----------------------------|
H----------------------------|----------------------------|
G----------------------------|----------------------------|
D-5-5----5-5----5-5---1-3----|-5-5----5-5----5-5---1-3----|
A-5-5-1--5-5-1--5-5-1-0-5-1--|-5-5-1--5-5-1--5-5-1-0-5-1--|
E-3-3-0--3-3-0--3-3-0---5-0--|-3-3-0--3-3-0--3-3-0---5-0--|


__::Verse 3
Git2
e----------------------------|------------------------------|
H----------------------------|------------------------------|
G----------------------------|----------------------777-----|
D--------------------5~5-----|-7~7--------9~999-----777-----|
A-1~1----------------5~5-----|-7~7--------9~999-----555-----|
E-0~0----------------3~3-----|-5~5--------7~777----------000|
  U D                U D       U D        U D       

[ Tab from: http://www.guitartabs.cc/tabs/j/jbo/alabatsch_tab.html ]
__::Refain
Git1 & Git2
Git2:
e----------------------------|----------------------------|
H----------------------------|----------------------------|
G----------------------------|----------------------------|
D-5-5----5-5----5-5---1-3----|-5-5----5-5----5-5---1-3----|
A-5-5-1--5-5-1--5-5-1-0-5-1--|-5-5-1--5-5-1--5-5-1-0-5-1--|
E-3-3-0--3-3-0--3-3-0---5-0--|-3-3-0--3-3-0--3-3-0---5-0--|


_::Bridge
Git2 & Git1
e----------------------------|
H----------------------------|
G----7-----------------------|
D----7-x7-----7--------------|
A----5-----0--7-x7-----------|
E-0-----------5--------------|

__::Bridge 2a
Git2 & Git1
e------------------|------------------|
H------------------|------------------|
G---5--------------|---5-------5------|
D-0-5-0-5-0-7------|-0-5-0-5-0-5-x7---|
A-0-3-0-5-0-7-x7---|-0-3-0-5-0-3------|
E-0---0-3-0-5------|-0---0-3-0--------|
  D U D     [sPM]    D U D     [sPM]

----------------------------------
----------------------------------
-9----5--------------5----7-------
-9-x3-5-x3-5----7-7--5-x3-7-x3-0-5
-7----3----5-x3-7-7--3----5----0-5
-----------3----5-5------------0-3
                U D 

_::Refain
Git1
e----------------------------|----------------------------|
H----------------------------|-3-3-0~-3-3-0~-3-3-0-5-3-0~~|
G----------------------------|----------------------------|
D-5-5----5-5----5-5---1-3----|----------------------------|
A-5-5-1--5-5-1--5-5-1-0-5-1--|----------------------------|
E-3-3-0--3-3-0--3-3-0---5-0--|----------------------------|
Git2
e----------------------------|----------------------------|
H----------------------------|----------------------------|
G----------------------------|----------------------------|
D-5-5----5-5----5-5---1-3----|-5-5----5-5----5-5---1-3----|
A-5-5-1--5-5-1--5-5-1-0-5-1--|-5-5-1--5-5-1--5-5-1-0-5-1--|
E-3-3-0--3-3-0--3-3-0---5-0--|-3-3-0--3-3-0--3-3-0---5-0--|


__::Verse 4
Git2
e-----------------------------|------------------------------|
H-----------------------------|------------------------------|
G-----------------------------|----------------------777-----|
D---------------------5~5-----|-7~7--------9~999-----777-----|
A--1~1----------------5~5-----|-7~7--------9~999-----555-----|
E0-0~0----------------3~3-----|-5~5--------7~777----------000|
   U D                U D       U D        U D       


__::Refain
Git1 & Git2
Git2:
e-------------------------------|----------------------------|
H-------------------------------|----------------------------|
G-------------------------------|----------------------------|
D----5-5----5-5----5-5---1-3----|-5-5----5-5----5-5---1-3----|
A----5-5-1--5-5-1--5-5-1-0-5-1--|-5-5-1--5-5-1--5-5-1-0-5-1--|
E000-3-3-0--3-3-0--3-3-0---5-0--|-3-3-0--3-3-0--3-3-0---5-0--|

_::Bridge
Git2 & Git1
e----------------------------|
H----------------------------|
G----7-----------------------|
D----7-x7-----7--------------|
A----5-----0--7-x7-----------|
E-0-----------5--------------|

__::Bridge 2b
Git2 & Git1
e------------------|------------------|
H------------------|------------------|
G---5--------------|---5-------5------|
D-0-5-0-5-0-7------|-0-5-0-5-0-5-x7---|
A-0-3-0-5-0-7-x7---|-0-3-0-5-0-3------|
E-0---0-3-0-5------|-0---0-3-0--------|
  D U D     [sPM]    D U D     [sPM]

----------------------------------
----------------------------------
-9----5--------------5----7-------
-9-x3-5-x3-5----7-7--5-x3-7-x3-0-5
-7----3----5-x3-7-7--3----5----0-5
-----------3----5-5------------0-3
                U D 
 ------------------

__::Refain
Git1 & Git2
Git2:
e-------------------------------|----------------------------|
H-------------------------------|----------------------------|
G-------------------------------|----------------------------|
D----5-5----5-5----5-5---1-3----|-5-5----5-5----5-5---1-3----|
A----5-5-1--5-5-1--5-5-1-0-5-1--|-5-5-1--5-5-1--5-5-1-0-5-1--|
E000-3-3-0--3-3-0--3-3-0---5-0--|-3-3-0--3-3-0--3-3-0---5-0--|

2x spielen + E5~~


ERKLÄRUNG :
U=UPSTRUM   (nach oben  schlagen)
D=DOWNSTRUM (nach unten schlagen)
~=Längerklingen lassen
~~=Ring out
[sPM]=semi Palm Mute
----------------=Wiederholen der Gekennzeichneten Stelle
x = spiele diesen Akkord in der geforderten Anzahl


FRAGEN AN : bowling.ball.bag.bob@gmx.net 
VIST : www.satiren.de.lv
Comments