Jazzberry Ram - Pablo Jack Horner Chords & Tabs

 

Pablo Jack Horner Chords & Tabs

Jazzberry Ram Chords & Tabs

Version: 2 Type: Bass Tab 0 ratings
1 star 2 stars 3 stars 4 stars 5 stars
comments

Pablo Jack Horner Bass Tab

   
BASS GUITAR TAB
---------------
Song:  Pablo Jack Horner
Artist: Jazzberry Ram


THIS IS AN EXCELLENT SONG TO PLAY BY A TALENTED LITTLE
CANADIAN BAND FROM THE WEST COAST.  YOU GUYS RULE!!

	Drum intro to the song, then electric guitar and
	bass start with G-D-A-C riff pattern (whole song).

  Intro
    G        D        A        C
G |-------------------------------------|
D |-------------------------------------|
A |----------55555555----------33333333-|
E |-33333333----------55555555----------|


  Verse Riff 1 (singing part)
    G        D        A        C
G |-------------------------------------|
D |-------------------------------------|
A |----------5-5---------------3-3------|
E |-3-3---------------5-5---------------|

[ Tab from: http://www.guitartabs.cc/tabs/j/jazzberry_ram/pablo_jack_horner_btab_ver_2.html ]
  Verse Riff 2 (rap part)
    G            D             A            C
G |------------------------------------------------------|
D |-----------------7-----7-7-----------------3-----5-5--|
A |---5-----5-5--55--5-55--------7-----7-7--33--3-33-----|
E |-33--3-33-------------------55--5-55------------------|


  Middle, same as intro.
    G        D        A        C
G |-------------------------------------|
D |-------------------------------------|
A |----------55555555----------33333333-|
E |-33333333----------55555555----------|


  Outro (play until fade.)
G |-------------------------------------|
D |----------7-'-'-------------5-'-'----|
A |-5-'-'------5-5----7-'-'------3-3----|
E |---3-3---------------5-5-------------|


Tabbed by Kent Wiezel
kwiezel@hotmail.com
______________________________________________________
"Do not follow where a path may lead; Go instead where
there is no path and leave a trail." - Author unknown

Comments