Jayhawks - Settled Down Like Rain Chords & Tabs

 

Settled Down Like Rain Chords & Tabs

Jayhawks Chords & Tabs

Version: 2 Type: Bass Tab 0 ratings
1 star 2 stars 3 stars 4 stars 5 stars
comments

Settled Down Like Rain Bass Tab

Artist: The Jayhawks
Song: Settled down like rain
>From the album: Hollywood town hall 1992 
Tabbed by: Maarten Ivens
Date: 21 april 2000 
Send comments, suggestions, improvements to baskoning@hotmail.com
------------------------------------------------------------------------


This one is not too difficult. If you play it along with the song it'll
be easy. Most of the time the bassplayer is just "walking" 
from chord to chord. Good luck!!



 (Intro)                                                          
G---------------|--------------|-----------|-----------|--2--5--2--5----
D---3--3--3--2--|--------------|-----------|-----------|----------------
A---------------|--3--3--3--0--|-----0--2--|--3--3--3--|----------------
E---------------|--------------|--3--------|-----------|----------------
                                                                        

              You came and you gave...                                  
G---2-----||--------|--------------|-----------|-----------|------------
D------5--||--3--3--|--2--2--0--2--|--3--3--2--|--------2--|--3--3------
A---------||--------|--------------|-----------|--3--5-----|------------
E---------||--------|--------------|-----------|-----------|------------
                                                                        

                                                                        
G------|-----------|-----------|-----------|--2--5--2--5--2-------------
D---2--|-----------|-----------|-----------|-----------------5----------
A------|--3--3--0--|-----0--2--|--3--3--3--|----------------------------
E------|-----------|--3--------|-----------|----------------------------
                                                                        

    (Repeat this part 1 time)                                           
G|---------|--------------|-----------|-----------|-----------|---------
D|*--3--3--|--2--2--0--2--|--3--3--2--|--------2--|--3--3--2--|---------
A|*--------|--------------|-----------|--3--5-----|-----------|--3--3---
E|---------|--------------|-----------|-----------|-----------|---------
                                                                        

                                                                        
G------|-----------|-----------|--------------2---------|---------------
D------|--------2--|--3--3--3--|--0--2--3--5-----3------|---------------
A---0--|-----5-----|-----------|--------------------3---|---------------
E------|--3--------|-----------|------------------------|---------------
                                                                        

(Chorus) Knock me down....                                                   
G------------------|--------------|--------------|-----|-----------|----
D------------0--2--|--3--3--5--5--|--------------|-----|-----------|----
A---0--1--1--------|--------------|--3--3--3--4--|--5--|-----------|----
E------------------|--------------|--------------|-----|--3--3--3--|----
                                                                        
[ Tab from: http://www.guitartabs.cc/tabs/j/jayhawks/settled_down_like_rain_btab_ver_2.html ]
                                Lead Break (instrumental part)        
G-------------------------||--||-----|-----|-----|-----------|----------
D------------------2--3--*||--||--3--|-----|--3--|-----5--2--|--3--3----
A---------5-----5--------*||--||-----|--3--|-----|--3--------|----------
E---3--3-----3------------||--||-----|-----|-----|-----------|----------
                                                                        

                                                                        
G---------|-----------|--------------|-----------|--------------|-------
D---3--5--|-----5--2--|--3--3--3--5--|-----5--2--|--3--3--3--5--|-------
A---------|--3--------|--------------|--3--------|--------------|--3----
E---------|-----------|--------------|-----------|--------------|-------
                                                                        

                                               (Chorus)  Knock me down...        
G--------|--------|------------|------------||-----------------|---------
D--------|--------|------------|---------5--||-----------0--2--|--3------
A---1--0-|---0--2-|3--3-----0--|2--3--3-----||--0--1--1--------|---------
E--------|3-------|-------3----|------------||-----------------|---------
                                                                        

                                                                        
G------------|--------------|-----|-----------|-------------------------
D---3--5--5--|--------------|-----|-----------|-----------------2--3----
A------------|--3--3--3--4--|--5--|-----------|--------5-----5----------
E------------|--------------|-----|--3--3--3--|--3--3-----3-------------
                                                                        

        You pack up your bags....                                       
G---||--------|--------------|-----------|-----------|-----------|------
D---||--3--3--|--2--2--0--2--|--3--3--2--|--------2--|--3--3--2--|------
A---||--------|--------------|-----------|--3--5-----|-----------|------
E---||--------|--------------|-----------|-----------|-----------|------
                                                                        

G------------|-----------|-----------|--2--5--2--5--2-----||------------
D------------|-----------|-----------|-----------------5--||------------
A---3--3--0--|-----0--2--|--3--3--3--|--------------------||------------
E------------|--3--------|-----------|--------------------||------------
                                                                        

    Your words....                                                      
G---------|--------------|-----------|-----------|-----------|----------
D---3--3--|--2--2--0--2--|--3--3--2--|--------2--|--3--3--2--|----------
A---------|--------------|-----------|--3--5-----|-----------|--3--3----
E---------|--------------|-----------|-----------|-----------|----------
                                                                        

          Happy ever after...  Happy ever after....                     
G------|-----------|--------|-----------------|--------|-----------|----
D------|--------2--|--3--3--|--3--4--5-----2--|--3--3--|-----2--3--|----
A---0--|-----5-----|--------|-----------5-----|--------|--3--------|----
E------|--3--------|--------|-----------------|--------|-----------|----
                                                                        

                                                                        
G------|-----|-----||
D---2--|--0--|-----||
A------|-----|--3--||
E------|-----|-----||                                                                        
Comments