Jay-z - Moment Of Clarity Chords & Tabs

 

Moment Of Clarity Chords & Tabs

Jay-z Chords & Tabs

Version: 2 Type: Tab

Moment Of Clarity Tab

=====================
tabbed by Scott Davis
=====================


the main string melody tabbed for guitar

[ Tab from: http://www.guitartabs.cc/tabs/j/jay_z/moment_of_clarity_tab_ver_2.html ]
E--------------------------------------------------|
B----------9-------9-11-------11-12-------12-11----|
G---8-8-11-------8---------8------------8----------|
D--------------------------------------------------|
A--------------------------------------------------|
E--------------------------------------------------|


E-----11-----------11---------11-------------------|
B--------9-----------------------------------------|
G---8-----------8-----11----8----10-------11-10----|
D---------------------------------------8----------|
A--------------------------------------------------|
E--------------------------------------------------|