Jay Z - Guns Roses Chords & Tabs

 

Guns Roses Chords & Tabs

Jay Z Chords & Tabs

Version: 1 Type: Tab 0 ratings
1 star 2 stars 3 stars 4 stars 5 stars
comments

Guns Roses Tab

Jay Z - Guns And Roses

Jay_Z_Blueprint03@hotmail.com

I tabbed this out by ear when I was bored

I like all Jay Z songs for music especially this song.
Mostly because it's lenny kravitz Playing

Intro

.= Rake

|-------------------------|
|-------------------------|
|-2--.2--------2----------|
|------.2--------2---0----|
|--------.0-0------0------|
|-------------------------|


(Intro and the part where Kravitz is like "COME ON"

[ Tab from: http://www.guitartabs.cc/tabs/j/jay_z/guns_roses_tab.html ]
|----------|--------------------|
|----------|--------------------|
|----------|-----------2--------|
|----------|--------------------|
|----------|-3-5-2-3-0---3-5-2--|
|-2--------|--------------------|


(Verse and chorus)


|-5-3-5-----5-----|-5-3-5-----5----|-5-3-5-----5-----|-------------------|
|-------5-6---5---|-------5-6---5--|-------5-6---5---|---5---------------|
|---------------5-|----------------|---------------5-|-5---5---4---------|
|-----------------|----------------|-----------------|-------7----x-5--7-|
|-----------------|----------------|-----------------|-------------------|
|-----------------|----------------|-----------------|-------------------|

Comments