Jay Z - Dirt Off Your Shoulder Chords & Tabs

 

Dirt Off Your Shoulder Chords & Tabs

Jay Z Chords & Tabs

Version: 4 Type: Tab

Dirt Off Your Shoulder Tab

Song: Dirt off you shoulders
Artist: Jay-Z
Album: The Black Album      PLEASE RATE..so i no if i did good or not     

e----8-6-------------------|
b-6-------9-8-6--6-6-6-6-6-|
g--------------------------|
d--------------------------| this rhythem is played 32 times..i counted  
a--------------------------|  then it stops for a few seconds
d--------------------------|

e---6---6-6-6---6---6-6-8--|
b--------------------------|
g--------------------------|   and u play this during those few seconds
d--------------------------|  during all those card flipping fx
a--------------------------|
d--------------------------|
[ Tab from: http://www.guitartabs.cc/tabs/j/jay_z/dirt_off_your_shoulder_tab_ver_4.html ]
e----8-6-------------------|
b-6-------9-8-6--6-6-6-6-6-|
g--------------------------|  and u play this agian...15 times
d--------------------------|
a--------------------------|
d--------------------------|

e--------------------------|
b--------------------------|
g--------------------------|  its the same rhytem just half as fast
d------------6-4-----------|
a----4--------------6-5----|
d--------------------------|

e----8-6-------------------|
b-6-------9-8-6--6-6-6-6-6-|
g--------------------------| then this til the end of the song..it changes a
d--------------------------|  it changes a few times but there all the same
a--------------------------|  ones as above
d--------------------------|