Jay Z - Dirt Off Your Shoulder Chords & Tabs

 

Dirt Off Your Shoulder Chords & Tabs

Jay Z Chords & Tabs

Version: 3 Type: Tab 0 ratings
1 star 2 stars 3 stars 4 stars 5 stars
comments

Dirt Off Your Shoulder Tab

Furst Part

E|------75320--00000------------------------|
B|----0-------------------------------------|
G|------------------------------------------|
D|------------------------------------------|
A|------------------------------------------|
E|------------------------------------------|

Second Part
[ Tab from: http://www.guitartabs.cc/tabs/j/jay_z/dirt_off_your_shoulder_tab_ver_3.html ]
E|------------------------------------------|
B|----0--7--5--3--2--0----33330-------------|
G|------------------------------------------|
D|------------------------------------------|
A|------------------------------------------|
E|------------------------------------------|

E|-----75----75----75----75---7533300000----|
B|---0-----0-----0-----0----0---------------|
G|------------------------------------------|
D|------------------------------------------|
A|------------------------------------------|
E|------------------------------------------|

Afta u do tha second part juss go back to part 1 nd repeat.listen to tha song or buy tha Black Album.

Listen to tha song. I thnk this iz all right. So if u got sum sum bout this holla front ya hurr. Peace Ou'

Phily
Comments