Jay Z - Big Pimpin Chords & Tabs

 

Big Pimpin Chords & Tabs

Jay Z Chords & Tabs

Version: 5 Type: Tab 0 ratings
1 star 2 stars 3 stars 4 stars 5 stars
comments

Big Pimpin Tab

-----------------------------------------------------------------------------
			     Big Pimpin - Jay-Z
-----------------------------------------------------------------------------
Tabbed by: The magnificent dan heely
Email: danielheely@hotmail.com

Tuning: No detuning today boys..its standard
[ Tab from: http://www.guitartabs.cc/tabs/j/jay_z/big_pimpin_tab_ver_5.html ]
couldnt find this tab so i figured it out and here 'tis, real eazy and hilarious if you
get someone to rap to it, however you are only allowed to learn this if its jokingly..no
serious jay-z fans allowed.. lets face it.. rap sucks.

e|-------------------12-14-12-15-14-12-------------------------12-14-12|
B|-----------------------------------------------------16-14-16--------|
G|---------------------------------------------------------------------|
D|--9---9---9---9-9---------------------9---9---9---9-9----------------|
A|--7---7---7---7-7---------------------6---6---6---6-6----------------|
E|---------------------------------------------------------------------|
Comments