Jay Sean - Down Chords & Tabs

 

Jay Sean Chords & Tabs

Version: 1 Type: Tab 0 ratings
1 star 2 stars 3 stars 4 stars 5 stars
comments

Down Tab

                                  Down
                              By: Jay Sean

Tabbed By: Mr ChubZ
email: iTzMrChubz@live.com

Standard Tuning

Ok sooooo this is my 1st tab... be gentle with me lol
[ Tab from: http://www.guitartabs.cc/tabs/j/jay_sean/down_tab.html ]
[Intro/Chorus]
listen to the song for pattern, I like to throw clicks in between chords
Put the transition words under to try to help
E---------------------------------------------------|
B---------------------------------------------------|
G--------------7-(x)-7-(x)--------------------------|
D--5-(x)-5-(x)-7-(x)-7-(x)-7-(x)-7-(x)-9-(x)-7-(x)--|
A--5-(x)-5-(x)-5-(x)-5-(x)-7-(x)-7-(x)-9-(x)-7-(x)--|
E--3-(x)-3-(x)-------------5-(x)-5-(x)-7-(x)-5-(x)--|
  "Don't"     "Only"     "Lonely"     "Sky" "Fallin"
  "Down"

[Verse]
Not a 100% about the last chord but it works for me...
E---------------------------------------------------      ---|
B---------------------------------------------------      ---|
G--------------7-(x)-7-(x)--------------------------      ---|
D--5-(x)-5-(x)-7-(x)-7-(x)-7-(x)-7-(x)-4-(x)-4-(x)-- -Or- -5-|
A--5-(x)-5-(x)-5-(x)-5-(x)-7-(x)-7-(x)-4-(x)-4-(x)--      -5-|
E--3-(x)-3-(x)-------------5-(x)-5-(x)-2-(x)-2-(x)--      -2-|
 "Show"                  "How"        "Control"

Simple as that =] Hav funn playin guys!
Any comments, questions, or corrections just email and I'll fix it
Comments