Jay Sean - Down Chords & Tabs

 

Jay Sean Chords & Tabs

Version: 1 Type: Bass Tab 0 ratings
1 star 2 stars 3 stars 4 stars 5 stars
comments

Down Bass Tab

Intro/Chorus:

G|--------------------------------------------------------------|
D|--------------------------------------------------------------|
A|----------------5-5-5-5-5-5-5-5-------------------------------|
E|-3-3-3-3-3-3-3-3---------------5-5-5-5-5-5-5-5-7-7-7-7-5-5-5-5|
[ Tab from: http://www.guitartabs.cc/tabs/j/jay_sean/down_btab.html ]
Verses
G|--------------------------------------------------------------|
D|--------------------------------------------------------------|
A|----------------5-5-5-5-5-5-5-5-------------------------------|
E|-3-3-3-3-3-3-3-3---------------5-5-5-5-5-5-5-5-2-2-2-2-2-2-2-2|


Yeah tats basically it simple as that 
Comments