Jay Chou - Yi Lu Xiang Bei Chords & Tabs

 

Yi Lu Xiang Bei Chords & Tabs

Jay Chou Chords & Tabs

Version: 1 Type: Tab 0 ratings
1 star 2 stars 3 stars 4 stars 5 stars
comments

Yi Lu Xiang Bei Tab

   
Jay Chou - Yi Lu Xiang Bei
Album: Initial J - Jay Chou Greatest Hits 

For all initial d fans out there! have fun learning this song, although there are more
background guitar parts to this song, this is the essence of it.  

Intro (guitar 1 and 2 to be played together): 
Guitar 1:
e|------------------------|-----------|--------------------------|	
B|------------------------|-----------|--------------------------|
G|------------------------|-----------|--------------------------|
D|----------7-7-10-10-----|-----------|----------7-7-10-10-10-10-|
A|-10-10-10-----------8-8-|---------8-|-10-10-10-----------------|
E|------------------------|-------8---|--------------------------|
Crds:F                 Bb               Dm

e|----------------|------------------------|-----------|	
B|----------------|------------------------|-----------|
G|----------------|------------------------|-----------|
D|-10-8-7-8-----7-|----------7-7-10-10-----|-----------|
A|----------------|-10-10-10-----------8-8-|---------8-|
E|----------------|------------------------|-------8---|
  Bb                F                  Bb

e|--------------------------|----------------|
B|--------------------------|----------------|
G|--------------------------|----------------|
D|----------7-7-10-10-10-10-|-10-8-7-8-------|
A|-10-10-10-----------------|----------------|
E|--------------------------|----------------|
   Dm                         Bb


Guitar 2:
e|-1---1---0---1---|-1---1---0---1---|-1---1---0---1---|	
B|---1---1---1-1-1-|---1---1---1---1-|---1---1---1-1-1-|
G|-0-0-0-2---------|-----------------|-0-0-0-2---------|
D|---------------3-|---------------3-|-0-------0-------|
A|---------3-------|-1-------1---3---|-----------------|
E|-1---------------|-----------------|-----------------|
Crds:F               Bb               Dm

e|-1---1---0-1-----|	
B|-1-1---1---------|
G|---3-2-3-------2-| x2
D|-----------------|
A|-1-------1-------|
E|-----------------|
   Bb               

*Verse
Gm	           Dm      Gm	               Dm
hou shi jing li de shi jie yue lai yue yuan de dao bie

              Bb	                Dm
ni zhuan shen xiang bei ce lian hai shi hen mei

	          Gm                       C
wo yong yan guang qu zui jing ting jian ni de lei

Gm	                Dm      Gm	          Dm 
zai che chuang wai mian pai hui shi wo cuo shi de ji hui
[ Tab from: http://www.guitartabs.cc/tabs/j/jay_chou/yi_lu_xiang_bei_tab.html ]
            Bb	                         Am
ni zhan de fang wei gen wo zhong jian ge zhe lei

    Dm	            Gm                         C
jie jing yi zhi zai hou tui ni de beng kui zai chuang wai ling sui


*Chorus
         Bb                         Am      Dm
wo yi lu xiang bei li kai you ni de ji jie

           Bb	      A7	   Dm          C
ni shuo ni hao lei yi wu fa zai ai shang shui

              Bb	                   Am	           Dm
feng zai shan lu chui guo wang de hua mian quan dou shi wo bu dui

   Gm            C           F
xi su can kui wo shang ni ji hui


-opening riff-


*Verse
Gm	           Dm      Gm	               Dm
hou shi jing li de shi jie yue lai yue yuan de dao bie

              Bb	                Dm
ni zhuan shen xiang bei ce lian hai shi hen mei

	          Gm                       C
wo yong yan guang qu zui jing ting jian ni de lei

Gm	                Dm      Gm	          Dm 
zai che chuang wai mian pai hui shi wo cuo shi de ji hui

            Bb	                         Am
ni zhan de fang wei gen wo zhong jian ge zhe lei

    Dm	            Gm                         C
jie jing yi zhi zai hou tui ni de beng kui zai chuang wai ling sui


*Chorus
Bb                                  Am      Dm
wo yi lu xiang bei li kai you ni de ji jie

           Bb	      A7	   Dm          C
ni shuo ni hao lei yi wu fa zai ai shang shui

              Bb	                   Am	           Dm
feng zai shan lu chui guo wang de hua mian quan dou shi wo bu dui

   Gm            C           F
xi su can kui wo shang ni ji hui


Bb                                  Am      Dm
wo yi lu xiang bei li kai you ni de ji jie

               Bb	      A7	   Dm          C
fang xiang pan zhou wei hui zhuan zhe wo de hou hui

          Bb	                          Am	           Dm
wo jia su chao yue que shuai bu diao jing jing gen sui de shang bei

   Gm             C           F
xi shu can kui wo shang ni ji hui

     Bb               C             F
ting zhi lang bei jiu rang cuo chun cui

-use opening riff for ending-

comments to yichenn@gmail.com
Comments