Jay Chou - Qi Li Xiang Chords & Tabs

 

Qi Li Xiang Chords & Tabs

Jay Chou Chords & Tabs

Version: 1 Type: Tab 0 ratings
1 star 2 stars 3 stars 4 stars 5 stars
comments

Qi Li Xiang Tab

   
Jay chou
Qi Li Xiang

Was searching for this song all over the net , cannot find this, so i decided to tab it myself

first one done. 

Intro:

|--------------|------------2-0--------------|
|------------0-|--3-----3--------3-----0h3---|
|----------2---|-----------------------------|
|------2h4-----|-----------------------------|
|--------------|-----------------------------|
|--------------|-----------------------------|
                                                         
|-----------0--2-----0-------|-------------2-0-------------|
|------0-3-----3-----2-----0-|--3-----3---------3----0h3-5-|
|--2-----------2-----2---2---|-----------------------------|
|--------------------2-4-----|-----4-----4-----------------|
|----------------------------|-----------------------------|
|----------------------------|-----------------------------|


Bm7	G   A        D
chuang wai de ma que / zai dian xian gan shang duo zui
Bm7	G   A        D
ni shuo zhe yi ju / hen you xia tian de gan jue
Bm7	G   A        D
shou zhong de qian bi / zai zhi shang lai lai hui hui 
Bm7	   G      A
wo yong ji hang zi xing rong ni shi wo de shui 


Bm7	G   A        D
qiu dao yu / de zi wei / mao gen ni dou xiang liao jie
Bm7	G   A        D
chu lian de xiang wei jiu zhe yang bei wo men xun hui 
Bm7	G   A        D
na wen nuan / de yang guang / xiang gang zhai de xian yan cao mei 
Bm7	     G        A
ni shuo ni she bu de chi diao zhe yi zhong gan jue 
[ Tab from: http://www.guitartabs.cc/tabs/j/jay_chou/qi_li_xiang_tab.html ]
Bm7	G   A        D
yu xia zheng ye / wo de ai yi chu jiu xiang yu shui 
Bm7	G   A        D
yuan zi luo ye / gen wo de si nian hou hou yi die
Bm7	 G	A       Dsus2
ji ju shi fei / ye wu fa jiang wo de re qing leng que
G	  A	  D     Dsus4
ni chu xian zai wo shi de mei yi ye 

Bm7	G   A        D
yu xia zheng ye / wo de ai yi chu jiu xiang yu shui 
Bm7	G   A        D
chuang tai hu die / xiang shi li fen fei de mei li zhang jie
Bm7	 G	A       Dsus2
wo jie zhe xie / ba yong yuan ai ni xie jin shi de jie wei 
G	  A	  D   Dsus4    D
ni shi wo wei yi xiang yao de liao jie


Interlude: (da jia hao! wo shi zhou jie lun..that part)


Bm7	G   A        D
na bao man / de dao sui / xing fu le zhe ge ji jie
Bm7	G   A        D
er ni de lian jia xiang tian li shou tou de fan qie 
Bm7	G   A        D
ni tu ran / dui wo shuo / qi li xiang de ming zi hen mei 
Bm7	     G        A
wo ci ke que zhi xiang qin wen ni jue qiang de zui

Ending:
|------------2-0--------------|-----------0--2-----0-------|
|--3-----3--------3-----0h3---|------0-3-----3-----2-----0-|
|-----------------------------|--2-----------2-----2---2---|
|-----------------------------|--------------------2-4-----|
|-----------------------------|----------------------------|
|-----------------------------|----------------------------|

|-------------2-0-----------|--0------------|
|--3-----3---------3----0-3-|---------------|
|---------------------------|---------------|
|-----4-----4---------------|---------------|
|---------------------------|---------------|
|---------------------------|---------------|
Comments