Jawbreaker - Want Chords & Tabs

 

Want Chords & Tabs

Jawbreaker Chords & Tabs

Version: 3 Type: Tab 0 ratings
1 star 2 stars 3 stars 4 stars 5 stars
comments

Want Tab

Great song, Kick @SS band! This is my first tab so be easy on reviews!

Band: Jawbreaker
Song: Want
Album: Unfun
Track: 1

Intro
(Bass does most of it)
e-----------------------------------------------
B-----------------------------------------------
G-----------------------------------------------    
D-----------------------------------------------
A------------------------7--0-------------------
E-----------------------------------------------


After the fourth time do this
Pre-pre-verse
A------------5-5-5-5-5-5-5-5-5-5-5-5-5-5--------


Pre-Verse

e-------------------------------------------------------------------
B-------------------------------------------------------------------
G-------------------------------------------------------------------
D----7-7-7-7-7-7-7-7-7---11-11-11-11-11-11-11-11--7-7-7-7-7-7-7-7---
A----7-7-7-7-7-7-7-7-7---11-11-11-11-11-11-11-11--7-7-7-7-7-7-7-7---
E----5-5-5-5-5-5-5-5-5---9--9--9--9--9--9--9--9---5-5-5-5-5-5-5-5---

e----------------------------
B----------------------------
G----------------------------
D--12-12-12-12-12-12-12-12---
A--12-12-12-12-12-12-12-12---
E--10-10-10-10-10-10-10-10---

Verse
[ Tab from: http://www.guitartabs.cc/tabs/j/jawbreaker/want_tab_ver_3.html ]
e-------------------------------------------------------------------
B-------------------------------------------------------------------
G-------------------------------------------------------------------   
D--7-7-7-7-7-7-7-7---4-4-4-4-4-4-4-4---12-12-12-12-12-12-12-12------
A--7-7-7-7-7-7-7-7---4-4-4-4-4-4-4-4---12-12-12-12-12-12-12-12------
E--5-5-5-5-5-5-5-5---2-2-2-2-2-2-2-2---10-10-10-10-10-10-10-10------
     Been...          for...              hours...
     Keep...          mouth...            tight...
     Three...         keep...             my mind...
     ...to find       ..need..            ...go


Chorus

e------------------------------------------------------------------------
B------------------------------------------------------------------------
G------------------------------------------------------------------------  
D---4-4-4-4-4-4-4-4---5-5-5-5-5-5-5-5---7-7-7-7-7-7-7-7---9-9-9-9-9-9-9-9  
A---4-4-4-4-4-4-4-4---5-5-5-5-5-5-5-5---7-7-7-7-7-7-7-7---9-9-9-9-9-9-9-9
E---2-2-2-2-2-2-2-2---3-3-3-3-3-3-3-3---5-5-5-5-5-5-5-5---7-7-7-7-7-7-7-7
     Dark...           burn...            tearing...        grab...
     chunk..           destroyed...       Yell...           before...

e-------------------------------------
B-------------------------------------
G-------------------------------------
D--5-5-5-5-5-5-5-5---4-4-4-4-4-4-4-4--
A--5-5-5-5-5-5-5-5---4-4-4-4-4-4-4-4--
E--3-3-3-3-3-3-3-3---2-2-2-2-2-2-2-2--
    ...now            ..it all...



Song order

intro 4x
pre-pre-verse
pre-verse
verse 4x
chorus 2x
pre-verse 
verse 4x
chorus 2x
intro 4x
pre-verse
verse 4x
intro 4x
Comments