Jawbreaker - Want Chords & Tabs

 

Want Chords & Tabs

Jawbreaker Chords & Tabs

Version: 2 Type: Bass Tab 0 ratings
1 star 2 stars 3 stars 4 stars 5 stars
comments

Want Bass Tab

Song Title: Want
Artist: Jawbreaker
----------------------------------------------

Want
Jawbreaker's 2nd best song off their 2nd best CD Unfun

Riff 1
----------6--7--6--------6--7--6--------6-----------------------------------
----7--7--------------------------4--4-----7--0-----------------------------
-------------------7--7-----------------------------------------------------
----------------------------------------------------------------------------

Riff 2
----------------------------------------------------------------------------
----------------------------------------------------------------------------
----------------4--4--4--5--do 3x----7--7--7--------------------------------
----5--5--5--5--------------------------------------------------------------
[ Tab from: http://www.guitartabs.cc/tabs/j/jawbreaker/want_btab_ver_2.html ]
Verse
----------------------------------------------------------------------------
----------------------------------------------------------------------------
----------------------5--5--5--5--5--5--5--5--------------------------------
----5--5--5--2--2--2--------------------------------------------------------
Been starin for a hundred hours...
Chorus
----------------------------------------------------------------------------
----------------------------------------------------------------------------
----------------------------------------------------------------------------
----5--5--5--5--2--2--2--2--3--3--3--3--3--3--5--5--5--5--------------------
Dark secrets burn their vessels...
Riff 3
----------------------------------------------------------------------------
----------------------------------------------------------------------------
----------5-----------------------------------------------------------------
----5--5--------------------------------------------------------------------

There ya go.
mail me correctons even though it's right
TLamb@spokane.net

Submitted by:  Rob Da Bass Masta (TLamb@spokane.net)


Comments