Jawbreaker - Sluttering Chords & Tabs

 

Sluttering Chords & Tabs

Jawbreaker Chords & Tabs

Version: 1 Type: Tab 0 ratings
1 star 2 stars 3 stars 4 stars 5 stars
comments

Sluttering Tab

   
I found this on a Jawbreaker fan site, and figured it would be better to have this
than nothing at all since the tab for this song is kind of hard to find.
--------------------

Jawbreaker
Sluttering (May 4)
By Pablo Lastra (plastra@mail.smu.edu)
 
 
Chords
 
e|---0--------------------------2------------------------------------|
B|---0------7-------------------2------------------------------------|
G|---1------6------6------2-----3------8-----9-----------------------|
D|---2------4------6------2-----4------8-----9-----------------------|
A|---2-------------4------0-----4------6-----7-----------------------|
E|---0--------------------------2------------------------------------|
     E      f#     C#     A     f#     D#    E
[ Tab from: http://www.guitartabs.cc/tabs/j/jawbreaker/sluttering_tab.html ]
 
Intro, Verse (palm-muted eighth-notes)
 
E  f# C#  A
E  f#  C# A  A
 
Post-Verse (strummed)
 
E  f#  C#  A
E f#  C#  D# E  C#
 
 
Chorus (eighth-notes)
 
C# A  E  B
 
 
Bridge part 1 (x2)
 
e|-------------------------------------------------------------------|
B|-------------------------------------------------------------------|
G|-------------------------------------------------------------------|
D|-------------------------------------------------------------------|
A|----------4-4-7-6-----6-6-9-9-12-11--------------------------------|
E|--4-4-2-2---------4-4----------------------------------------------|
 
Bridge part 2 (x3)
 
e|-------------------------------------------------------------------|
B|-------------------------------------------------------------------|
G|--8--6--14-13-11--8------------------------------------------------|
D|--x--x---x--x--x--x------------------------------------------------|
A|--6--4--12-11--9--6------------------------------------------------|
E|-------------------------------------------------------------------|
 
End in C#
Comments