Jawbreaker - Busy Chords & Tabs

 

Busy Chords & Tabs

Jawbreaker Chords & Tabs

Version: 1 Type: Tab 0 ratings
1 star 2 stars 3 stars 4 stars 5 stars
comments

Busy Tab

   
Jawbreaker
Busy
Unfun [LP]/Busy [7"]

Standard Tuning

Intro
e--------------------------------|
B----0------0------0------0------|
G--5---5--5---5--5---5--5---5----|
D--------------------------------|
A--------------------------------|
E--------------------------------|

Intro riff (play a few times)
e------3---------3--------3----------------|
B----0-----0---0---0----0-----0---0--3-----|
G--5-----5---5--------4-----4---5-------5--|
D------------------------------------------|
A------------------------------------------|
E------------------------------------------|

Verse
C                      E
When all the consoling places
F                    G
lose their charm and change their faces.
C                     E
The world becomes too cruel to bear
F                    G
and something in you starts to tear.
C                     E
When nothing seems to be quite worth it
F                      G
and sleep becomes your only sure thing.
C                    E
I'm here to help you out of it.
F               G
Come and see me for a lift.

Chorus
   A    F    G           F     E     A   E   F   G     F     E     G
e-------------------------------------------------------------------------|
B-------------------------------------------------------------------------|
G------------0-0-0-0-0-0-0-0-0-0-0-0-------------0-0-0-0-0-0-0-0-0-0-0-0--|
D--7----3---/5-5-5-5-5-5-3-3-3-2-2-2------------/5-5-5-3-3-3-2-2-2-0-0-0--|
A--7-8x-3-8x---------------------------3---3---3--------------------------|
E--5----1----------------------------5---0---1----------------------------|
A         F            G
We're all close to the end.
      F          E
Don't you need a friend?
A   E   F         G F E G
Honor your allegiances.
[ Tab from: http://www.guitartabs.cc/tabs/j/jawbreaker/busy_tab.html ]
   A    F    G           F     E     A   E   F   G     F     E     G     C     B     A   
 G
e-------------------------------------------------------------------------------------------------|
B-------------------------------------------------------------------------------------------------|
G------------0-0-0-0-0-0-0-0-0-0-0-0-------------0-0-0-0-0-0-0-0-0-0-0-0-0-0-0-0-0-0-0-0-0-0-0-0--|
D--7----3---/5-5-5-5-5-5-3-3-3-2-2-2------------/5-5-5-3-3-3-2-2-2-0-0-0--------------------------|
A--7-8x-3-8x---------------------------3---3---3-------------------------3-3-3-2-2-2-0-0-0--------|
E--5----1----------------------------5---0---1---------------------------------------------3-3-3--|
A           F           G
Everyone is drowning in sand.
             F     E
Couldn't you use a hand?
A      E     F          F E G C B A G
Please don't make me guess.

Verse (same as first)
When changes make the world a stranger.
No one calls and yout life's in danger.
If the money's gone without a trace
and you're longing for a familiar face.
Cars collide and people die.
You begin to shake 'til you start to cry.
If disasters only start to multiply.
My door is open. Drop on by.

Chorus (same as first)

Bridge
   E    F   C    G
e--------------------|
B--------------------|
G--9---10--------12--|
D--9---10---10---12--|
A--7----8---10---10--|
E-----------[8]------|

E                 F
Sad again, you're sad again.
C           G         C
Hey, you're breaking down.
E                 F
Sad again, you're sad again.
C           G             C     G
Your eyes betray your new smile.

Verse (same as first)
When keeping up is killing you
and you need a ruling without a clue.
When being cool means being dead
and your better thoughts are better left unsaid.
If you're sad to see your gun's unloaded.
Tried to drown but you only floated.
If the world is only getting colder,
I'd like to offer you a dry shoulder.

Chorus

Bridge

Outro
                                 Part 2 (once,
                                 then return to
Part 1 (play twice)              Part 1)           Part 3
e-------------------------------|----------------|---------|
B-------------------------------|----------------|---------|
G--8------10------8------5------|--3------2------|--5------|
D--x-10x---x-10x--x-10x--x-10x--|--x-10x--x-10x--|--x-10x--|
A--6-------8------6------3------|--1------0------|--3------|
E-------------------------------|----------------|---------|

Ending (general idea)
e-------3-------3------3-------3------3---------------|-----3--------|
B-----------------------------------------------3-----|---0-----0----|
G--4h5-----4h5----4h5-----5p4-----5p4----4h5p4-----5--|-4-----4/5----|
D-----------------------------------------------------|--------------|
A-----------------------------------------------------|--------------|
E-----------------------------------------------------|--------------|

That should be about it. It sounds... ok. Just ok.
Comments