Jason Wade - You Belong To Me Chords & Tabs

 

You Belong To Me Chords & Tabs

Jason Wade Chords & Tabs

Version: 1 Type: Chords 0 ratings
1 star 2 stars 3 stars 4 stars 5 stars
comments

You Belong To Me Chords

Artis:Jason Wade (from LifeHouse)
Song:You Belong to me(Shrek Soundtrack)

Tabber:Eric Morandeau E-Mail:Enk86@hotmail.com

I think this is a more correct version then the other tabs.
They didnt sound right at all.
Theese chords are 100% clean.
Its the last chord in the chorus that is wrong but thats
was the closest i could get.
If you figure out the things that are beetwen the chords plz mail me.
Well here is your tab enjoy!!
[ Tab from: http://www.guitartabs.cc/tabs/j/jason_wade/you_belong_to_me_crd.html ]
Verse
 
-----8-----4--------4------------4-------------------------------------------
-11--9--4--6--4--4--6--6--8---6--6-------------------------------------------
-13--9--6--6--6--6-----8--10--8--6-------------------------------------------
-13--8--6--5--6---------------8--5-------------------------------------------
-13--8--6--4--6---------------8--4-------------------------------------------
-11--8--4--4--4---------------6--4-------------------------------------------

Chorus

------9------4---------
--11--11--6--6---------
--13--11--8--6---------
--13--9---8--5---------
--13--9---8--4---------
--11--9---6--4---------




see the pyramids around the Nile 
watch the sunrise from a tropic isle 
just remember darling all the while 
you belong to me 

see the marketplace in old Angier 
send me photographs and souvenirs 
just remember when a dream appears 
you belong to me 

and I'll be so alone without you 
maybe you'll be lonesome too 

fly the ocean in a silver plane 
see the jungle when it's wet with rain 
just remember till you're home again 
you belong to me 

oh I'll be so alone without you 
maybe you'll be lonesome too 

fly the ocean in a silver plane 
see the jungle when it's wet with rain 
just remember till you're home again 
you belong to me
Comments