Jason Mraz - You And I Both Chords & Tabs

 

You And I Both Chords & Tabs

Jason Mraz Chords & Tabs

Version: 3 Type: Tab 0 ratings
1 star 2 stars 3 stars 4 stars 5 stars
comments

You And I Both Tab

Jason Mraz
You and I Both
Standard Tuning
By: Nico, this is my first tab(100% accurate)

Listen to the song. You'll notice its complicated but nice strumming.
Tip; in the chord 5x555(5), the 1st string is strummed sequently with the chord, listen to the song.

Was it you...
e--3---3---x--(5)--10--x---3---|
B--3---3---8---5---8---3---3---|
G--4---3---7---5---0---2---2---|
D--5---4---5---5---x---0---0---|
A--5---5---7---x---7---x---x---|
E--3---3---0---5---8---2---2---|

Oh but it often times...
e--3---3---x--(5)--10--x--------|
B--3---3---8---5---8---3--------|
G--4---3---7---5---0---2--------|three down strokes and tap
D--5---4---5---5---x---0--------|(last chord only)
A--5---5---7---x---7---x--------|
E--3---3---0---5---8---2--------|

Cause you and I...
e--3---2---x-(5)--10--x-------|
B--3---3---8---5---8---3-------|
G--0---0---7---5---0---2-------|
D--0---0---5---5---x---0-------|
A--x---x---7---x---7---x-------|
E--3---3---0---5---8---2-------|

Of the love that I loved...
e--3---3---x---|
B--3---3---8---|
G--4---3---7---|strum, three down strokes and tap
D--5---4---5---|(last chord only)
A--5---5---7---|
E--3---3---0---|

See, I'm all about them words...
e--3---3---x--(5)--10--x----|
B--3---3---8---5---8---3----|
G--4---3---7---5---0---2----|three down strokes and tap
D--5---4---5---5---x---0----|(last chord only)
A--5---5---7---x---7---x----|
E--3---3---0---5---8---2----|

Cause you and I...
e--3---2---x-(5)--------------------10---------|
B--3---3---8---5---------------------8----------|
G--0---0---7---5-(change earlier to=-0----------|
D--0---0---5---5---------------------x----------|
A--x---x---7---x---------------------7----------|
E--3---3---0---5---------------------8----------|
[ Tab from: http://www.guitartabs.cc/tabs/j/jason_mraz/you_and_i_both_tab_ver_3.html ]
Well then I'm almost finally out of...(note the different format)
e--3---x-(5)--10-----------|
B--3---8---5---8------------|
G--4---7---5---0------------|
D--5---5---5---x------------|
A--5---7---x---7------------|
E--3---0---5---8------------|

Well I am free...oh I'm free
e--3--------3---------------|
B--3-------3----------------|
G--4------4-----------------|(one slow down stroke)
D--5-----5------------------|
A--5----5-------------------|
E--3---3--------------------|


And its okay...(one down stroke)
e--3----3--5----5----------|
B--3--3----3--3------------|
G--0-------0---------------|
D--2-------4---------------|
A--3-------5---------------|
E--0-----------------------|

Oh just remember the telephone...
e--3---3---3-------3---3--------|
B--3---3---3-------3---3--------|
G--0---2---0-------0---2--------|
D--x---0---2-------2---0--------|
A--2---x---2-------3---x--------|
E--3---2---0-------0---2--------|

If nothing else...(one down stroke each)
e--x---x---x---x-------   --10--x--|
B--3---3---3---3-------   --8--3--|
G--0---2---0---0-------X2 --0--2--|(strum normally this 2 last chords)
D--x---0---2---0-------   --x--0--|
A--2---x---2---0-------   --7--x--|
E--3---2---0---0-------   --8--2--|
Then: (three down strokes then tap)
e-x--
B-3--
G-2--
D-0--
A-x--
E-2-

Cause you and I...

>>>>(repeat the 2nd chorus)

Then:
e--3---x-(5)--10-----------|
B--3---8---5---8------------|
G--4---7---5---0------------|
D--5---5---5---x------------|
A--5---7---x---7------------|
E--3---0---5---8------------|

Well out of words...
e--3--------3---------------|
B--3-------3----------------|
G--4------4-----------------|(one slow down stroke)(hold)
D--5-----5------------------|
A--5----5-------------------|
E--3---3--------------------|
Comments