Jason Mraz - Wordplay Chords & Tabs

 

Wordplay Chords & Tabs

Jason Mraz Chords & Tabs

Version: 1 Type: Tab 0 ratings
1 star 2 stars 3 stars 4 stars 5 stars
comments

Wordplay Tab

   
-------------------------------------------------------------------------------
			   Wordplay  by Jason Mraz
-------------------------------------------------------------------------------
Tabbed by: WaitingDAY
Email: undrtker3d@aol.com
 This is a great tune by Mr. A-Z   a lot of people have tabbed this
But haven't gotten it right, I think mine is right, but if you see
Corrections let me know...

Intro
(1st guitar light distortion)
e|--0---0---0------------------------------------------------|
B|--3---3---3------------------------------------------------|
G|--0---0---2------------------------------------------------|
D|--0---2---0------------------------------------------------|
A|--2---3----------------------------------------------------|
E|--3--------------------------------------------------------|
    (2nd guitar acoustic)
e|----0-------0----------0------------------------------------|
B|------3-------3----------3----------------------------------|
G|---------------------2--------------------------------------|
D|-----------2-------0----------------------------------------|
A|--2------3--------------------------------------------------|
E|-3----------------------------------------------------------|
[ Tab from: http://www.guitartabs.cc/tabs/j/jason_mraz/wordplay_tab.html ]
Verse
Make the guitar chords kinda choppy, you'll hear the rhythm
e|-0---------0--------------------------------------------------|
B|-0---------1--------------------------------------------------|
G|-0-----0---2--------------------------------------------------|
D|-3-----0---2--------------------------------------------------|
A|-3-----2---0--------------------------------------------------|
E|-0-----3------------------------------------------------------|

  (verse ending)
  (drop my top)      (...for the single and...)
e|-----------3-----3--~----------------------------------------|
B|-----------3-----3--~----------------------------------------|
G|--------0--0-----2--~----------------------------------------|
D|-2--0---2--0-----2--~----------------------------------------|
A|-2--2---2--2-----0--~----------------------------------------|
E|-0--3---x--3-------------------------------------------------|

Chorus
Repeat 3x           chorus ending
                 (..wonderful....mr a-z all about the wordplay)
e|-3---3----0---|--3--3--0-----------------------------------------|
B|-3---3----3---|--3--3--1-----------------------------------------|
G|-0---0----2---|--0--0--0-----------------------------------------|
D|-0---2----0---|--2--0--2-----------------------------------------|
A|-2---3--------|--2--x--3-----------------------------------------|
E|-3------------|--0--2--------------------------------------------|
interlude
e|-x------x------------------x------------------------|
B|-x------x------------------x------------------------|
G|-13----10---------7--5----13------4---~~~~~---------|
D|---------------2--7--5------------4--~~~~~~~~-------|
A|---------------2--5--3------------2--~~~~~~---------|
E|---------------0------------------------------------|

This last part I tabbed was a little weird I don't know the exact of the high notes but 
others are right.  This is a good song good luck with it.
| /  slide up
| \  slide down
| h  hammer-on
| p  pull-off
| ~  vibrato
| +  harmonic
| x  Mute note
=========================================================================
Comments