Jason Mraz - What We Want Chords & Tabs

 

What We Want Chords & Tabs

Jason Mraz Chords & Tabs

Version: 1 Type: Tab 0 ratings
1 star 2 stars 3 stars 4 stars 5 stars
comments

What We Want Tab

Tabbed by Jon Micetic
micet052@erau.edu



Standard Tuning

(Intro)
e---------------------------------------------------|
B---2---2-------------------------------------------|
G---2---2-2---4-2---2-------4---4-4---4---6-6-------|
D---------2---4-2---2-------4---4-4---4---6-6-------|
A-0---0-----0-----0---0-2---------------------------|
E-------------------------4---4-----4---4-----4-5-7-|

e---------------------------------------------|
B---------------------------------------------|
G-----7-------9-------6-------7-----7-------9-|
D---7-7-----9-9-----6-6-----7-7---7-7-----9-9-|
A-5-----5-7-----7-4-----4-5-------------7-----|
E-------------------------------7-----7-------|
[ Tab from: http://www.guitartabs.cc/tabs/j/jason_mraz/what_we_want_tab.html ]
(Verse)
e---------------------------------------------------|
B---2---2-------------------------------------------|
G---2---2-2---4-2---2-------4---4-4---4---6-6-------|
D---------2---4-2---2-------4---4-4---4---6-6-------|
A-0---0-----0-----0---0-2---------------------------|
E-------------------------4---4-----4---4-----4-5-7-|

e-------------------------------|
B-------------------------------|
G-----7-------9-------6-------7-|
D---7-7-----9-9-----6-6-----7-7-|
A-5-----5-7-----7-4-----4-5-----|
E-------------------------------|

e-------------------------------|
B-------------------------------|
G-----7-------9-------6-------7-|
D---7-7-----9-9-----6-6-----7-7-|
A-5-----5-7-----7-4-----4-5-----|
E-------------------------------|

e---------------------------------------------|
B---------------------------------------------|
G-----7-------9-------6-------7-----7-------9-|
D---7-7-----9-9-----6-6-----7-7---7-7-----9-9-|
A-5-----5-7-----7-4-----4-5-------------7-----|
E-------------------------------7-----7-------|

(Chorus)
e----------------------------|
B----------10----------------|
G----------11-----------9----|
D---11------------9-----9----|
A---11-0-9----0---9-0-7------|
E-9-------------7------------|

Thanks, please rate it after you learn it.
Comments