Jason Mraz - Warming Up To Me Chords & Tabs

 

Warming Up To Me Chords & Tabs

Jason Mraz Chords & Tabs

Version: 1 Type: Tab 0 ratings
1 star 2 stars 3 stars 4 stars 5 stars
comments

Warming Up To Me Tab

Tabbed by Jon Micetic
micet052@erau.edu



Standard Tuning

(Intro)
E -3-3-3-3-3-3-/8-----8---------------------|
a ---x-x---x-x------------------------------|
d --------------------------3-3-3-3-3-3-3-3-|  x3
g --------------------------2-2-2-2-2-2-2-2-|
b ---3-3---3-3----8-8---8-8-1-1-1-1-1-1-1-1-|
e ---3-3---3-3----8-8---8-8---------3-3-3-3-|
 
(Verse)
E -3-----------------------2----------------|
a ---------2---2---3---2--------------------|
d -----0---2---2-----2----------------------|  x2
g -------2----------------------------------|
b ---3---3---3---3---1---3---3--------------|
e ---3---2---3---3---3---3---2--------------|

(1st Chorus)
E -0-0h2-2h3-------3-2----------------------|
a -2---------5-3-3--------------------------|
d -2-------------2--------------------------|  x2
g ------------------------------------------|
b ---------------1--------------------------|
e ------------------------------------------|

(2nd Chorus)
E -0-0h2-2h3--------------------------------|
a -2---------5-3-3--------------------------|
d -2-------------2--------------------------|
g ------------------------------------------|
b ---------------1--------------------------|
e ------------------------------------------|

(3rd Chorus)
E ------------------------------------------|
a ?0-2-3---2---0----------------------------|
d -------2-------2-2-2----------------------|  x3
g ---------------2-2-2----------------------|
b -------1---1---1-1-1----------------------|
e ------------------------------------------|

E 2-3-3-3-3-3-3-/8-----8--------------------|
a ----x-x---x-x-----------------------------|
d ---------------------------3-3-3-3-3-3-3-3|
g ---------------------------2-2-2-2-2-2-2-2|
b ----3-3---3-3----8-8---8-8-1-1-1-1-1-1-1-1|
e ----3-3---3-3----8-8---8-8---------3-3-3-3|

E -3-3-3-3-3-3-/8-----8---------------------|
a ---x-x---x-x------------------------------|
d --------------------------3-3-3-3-3-3-3-3-| 
g --------------------------2-2-2-2-2-2-2-2-|
b ---3-3---3-3----8-8---8-8-1-1-1-1-1-1-1-1-|
e ---3-3---3-3----8-8---8-8---------3-3-3-3-|

E -3-----------------------2----------------|
a ---------2---2---3---2--------------------|
d -----0---2---2-----2----------------------|  x2
g -------2----------------------------------|
b ---3---3---3---3---1---3---3--------------|
e ---3---2---3---3---3---3---2--------------|

E -0-0h2-2h3-------3-2----------------------|
a -2---------5-3-3--------------------------|
d -2-------------2--------------------------| 
g ------------------------------------------|
b ---------------1--------------------------|
e ------------------------------------------|
[ Tab from: http://www.guitartabs.cc/tabs/j/jason_mraz/warming_up_to_me_tab.html ]
E -0-0h2-2h3--------------------------------|
a -2---------5-3-3--------------------------|
d -2-------------2--------------------------|
g ------------------------------------------|
b ---------------1--------------------------|
e ------------------------------------------|

E ------------------------------------------|
a ?0-2-3---2---0----------------------------|
d -------2-------2-2-2----------------------|
g ---------------2-2-2----------------------|
b -------1---1---1-1-1----------------------|
e ------------------------------------------|

E 2-3-3-3-3-3-3-/8-----8--------------------|
a ----x-x---x-x-----------------------------|
d ---------------------------3-3-3-3-3-3-3-3|
g ---------------------------2-2-2-2-2-2-2-2|
b ----3-3---3-3----8-8---8-8-1-1-1-1-1-1-1-1|
e ----3-3---3-3----8-8---8-8---------3-3-3-3|

E -3-3-3-3-3-3-/8-----8---------------------|
a ---x-x---x-x------------------------------|
d --------------------------3-3-3-3-3-3-3-3-|  x3
g --------------------------2-2-2-2-2-2-2-2-|
b ---3-3---3-3----8-8---8-8-1-1-1-1-1-1-1-1-|
e ---3-3---3-3----8-8---8-8---------3-3-3-3-|

(Bridge)
E -------------3--------------------------
a -----1-1-5-5-------1-1-----5-5----------
d -1-1-3-3-7-7---1-1-3-3-2-2-4-4----------
g -3-3-3-3-7-7---3-3-3-3-2-2--------------
b -----------------------2-2-3-3----------
e ----------------------------------------

E -3-----------------------2----------------|
a ---------2---2---3---2--------------------|
d -----0---2---2-----2----------------------|  x2
g -------2----------------------------------|
b ---3---3---3---3---1---3---3--------------|
e ---3---2---3---3---3---3---2--------------|

E -0-0h2-2h3-------3-2----------------------|
a -2---------5-3-3--------------------------|
d -2-------------2--------------------------| 
g ------------------------------------------|
b ---------------1--------------------------|
e ------------------------------------------|

E -0-0h2-2h3--------------------------------|
a -2---------5-3-3--------------------------|
d -2-------------2--------------------------|
g ------------------------------------------|
b ---------------1--------------------------|
e ------------------------------------------|

E ------------------------------------------|
a ?0-2-3---2---0----------------------------|
d -------2-------2-2-2----------------------|  x2
g ---------------2-2-2----------------------|
b -------1---1---1-1-1----------------------|
e ------------------------------------------|

(Outro)
E -------------------3-2---2----------------|
a ?0-2-3---2---0----------------------------|
d -------2-------2-2------------------------|
g ---------------2-2------------------------|
b -------1---1---1-1-----3---3--------------|
e -----------------------2---2--------------|

E -------------------3-2---3----------------|
a ?0-2-3---2---0----------------------------|
d -------2-------2-2------------------------|
g ---------------2-2------------------------|
b -------1---1---1-1-----3-3----------------|
e -----------------------2-3----------------|

Thanks, please rate it after you learn it.
Comments